00:00
00:00

Punk-o-matic

Share Collapse

Author Comments

**UPDATE**
Punkomatic 1 will be made into an iPhone/Android app once we reach 1250 likes on our Punkomatic facebook!
(remove spaces)
http://www.facebook.com/PunkoMatic

**EDIT**
PLEASE DON'T SUBMIT POM SONGS ON THE AUDIO PORTAL AS THEY ARE NOT VALID ORIGINAL COMPOSITIONS. THANK YOU FOR YOUR COMPREHENSION AND HAVE FUN WITH THE GAME! :D

The one and only Punk-o-matic :P
Thanks for the support everybody!

The offline version and the tabs can be downloaded at www.evil-dog.com

-Voices And More-
IceWolf
-Soundtrack-
My band Chucks Nation! Check us out on newgrounds http://chucksnation.newgrounds.com/audio

Reviews


Awsome!!!!!!!please rate this think it sounds goo

2--82--82--82--85-4-4-----2--8-------
-------2--89-------------------------
-----------------------------4---5-5-
----0---------------------6-c--------
------------------------------6-7-8-3 -3---------0-------6-7-8-a-----------
--------------------------------- please rate this think it sounds good


People find this review helpful!

Awesome - Try This

3---3---3---3---3---3---3---3---3---3 ---53--3---53--53--53--3---3---3---3-
-699554-9----------------------------
-----------1---2---0---1---0---2--1--
-4---7-8---7-0c------------6-8-7-8-7-
6-7-7-8-8-7-8-8-8-6-7-6-7-8-7-6-7-6-7 -8-7-8-a-------------------------



This game

Is SO kick ass, dude! I used to play it all the time when I was younger, and I never got bored with it. It's so much fun to just sit there and make your own music, then play it back and listen. Rock on!


People find this review helpful!

Damn Kids

99990---0---4-0-4-0---1---1---9999888 0---0---0-----5-5---0---0---0---1---0 ---1--0----6-6-3-4-3-4-3-4-3-4-3-2---
2---bbbb---64-4-4---4---a------8---8-
--c---0---2---0------b--------------0 ---0---1---1-------a---22-23-3-3---72 72-6-----0---4-4-a---1---aaa-8---


People find this review helpful!

YEAH !

This rocked and roled man. I add it to my favourites.
Keep up the good work !!!!!!!!!!!!!!!!!!


People find this review helpful!

Click on an icon to vote on this!

Credits & Info

Views
8,001,179
Faves:
12,853
Votes
128,330
Score
4.30 / 5.00

Uploaded
Jan 26, 2004
3:22 AM EST
Genre
Gadgets - Musical
  • Frontpaged April 14, 2008
  • Weekly Users' Choice January 28, 2004
  • Daily Feature January 27, 2004