00:00
00:00

Punk-o-matic

Share Collapse

Author Comments

**UPDATE**
Punkomatic 1 will be made into an iPhone/Android app once we reach 1250 likes on our Punkomatic facebook!
(remove spaces)
http://www.facebook.com/PunkoMatic

**EDIT**
PLEASE DON'T SUBMIT POM SONGS ON THE AUDIO PORTAL AS THEY ARE NOT VALID ORIGINAL COMPOSITIONS. THANK YOU FOR YOUR COMPREHENSION AND HAVE FUN WITH THE GAME! :D

The one and only Punk-o-matic :P
Thanks for the support everybody!

The offline version and the tabs can be downloaded at www.evil-dog.com

-Voices And More-
IceWolf
-Soundtrack-
My band Chucks Nation! Check us out on newgrounds http://chucksnation.newgrounds.com/audio

Reviews


The one and only Punk O Matic

Quit easily the greatest thing on newgrounds. No! The greatest thing on the internet


People find this review helpful!

my song

9-------------------0-2----2--------8 5-0------2----0----------------0-13--
--875--9---c-----0-------0-------0---
3---a------------0-------0-------2---
----4-6---------5-c---a-7-6-----1----
---0---2-7-1---aa-5-7-6-7-6-----1----
---0-------1-------5-5-7-6---a---
take this shit dude



Awesome

Check this shit out ! ----5---9-5-54-6-------6-0---0---9-55 55---3--89---9999996-7888888888779---
---------------c-----c-cc---5-5-c---5 -5-5-7-c-1111---0---0---bbbbbbb-5-5-7 -5-0-6-c--------------a-------a---aa-
--a---1---1---1---a-a------------2-4-
3-a---4-3-2-7-8-9-a--------------



heres my song

-----9-5-1---4-0--------



Excellent-------Please rate song

3---3---3---3---3---3-----------0--0-
--2--2-----9-9-6-6-5-5-3---3---9-9---
-------------------2---2---2---2-----
--5-5---7-7-----------9-------4---7-7 -7-7-3----------------------------4-4 -6-5-6-5-7-4---8---8-8-7-1---8-8-9---
----5---4-4-8-8------------------


Click on an icon to vote on this!

Credits & Info

Views
8,009,337
Faves:
12,877
Votes
128,350
Score
4.30 / 5.00

Uploaded
Jan 26, 2004
3:22 AM EST
Genre
Gadgets - Musical
  • Frontpaged April 14, 2008
  • Weekly Users' Choice January 28, 2004
  • Daily Feature January 27, 2004