Be a Supporter!

Credits & Info

Uploaded
Jan 26, 2004 | 3:22 AM EST
  • Weekly Users' Choice January 28, 2004
  • Daily Feature January 27, 2004

If you liked this, check these out!


Author Comments

**UPDATE**
Punkomatic 1 will be made into an iPhone/Android app once we reach 1250 likes on our Punkomatic facebook!
(remove spaces)
http://www.facebook.com/P unkoMatic

**EDIT**
PLEASE DON'T SUBMIT POM SONGS ON THE AUDIO PORTAL AS THEY ARE NOT VALID ORIGINAL COMPOSITIONS. THANK YOU FOR YOUR COMPREHENSION AND HAVE FUN WITH THE GAME! :D

The one and only Punk-o-matic :P
Thanks for the support everybody!

The offline version and the tabs can be downloaded at www.evil-dog.com

-Voices And More-
IceWolf
-Soundtrack-
My band Chucks Nation! Check us out on newgrounds http://chucksnation.newgr ounds.com/audio (remove the space from the URL)

Reviews


FlynnaginnFlynnaginn

Rated 5 / 5 stars

I GOTTA SAY MAN YOU MADE A PRETTY GOOD GAME HERE!!

man to be truthful im not raggin on your stuff but theres only one thing that pissed me off about the game and thats the fact you cant save the music on disk....you should try and work this into a update or something......oh and if theres anybody out there good with audio flash then they might wanna consider doing a rap version of this



major-gamermajor-gamer

Rated 5 / 5 stars

sweet

3-3---2---87966-80---0---0---0---5---
----6-3---3---7544-3-4-4-0---0--0---7 7777777779---3-3-5-5-6-6---8---9---4-
--1-----444---b------3-3-2-5-5-2---9-
--8---a-------------c-------------9-9 -4-3-2-7-7-4-6-a--a--a--a---9-5-5-5-7 -5-4-a---------------6-7-7-8-9---



flash4newgroundsflash4newgrounds

Rated 5 / 5 stars

NIIIICE!!!!!

ive played this game like 4 years be4 this review but wateva, CHECK DIS SHET OUT!

0---5-5-5-00---0---1---2---3---4-5-5-
5--6-7889---9---5-5-9----------------
-------------3-------00---0---1---2--
-3-4--------3-6-7-8---9---a---bc-----
--------------------------------00---
0---1---2-3-3-4-4--------6-7-8-9-9-a-
--0---a--------------------------



steveo789steveo789

Rated 5 / 5 stars

awsom!!!

i loved this game this is the best game i'v ever played


People find this review helpful!

HipnikDragomirHipnikDragomir

Rated 5 / 5 stars

ROCK N ROLL

started w/ something easy, but still ROCKS!!!!!!!
0---0---0---1---3---3---4-4-4-4-3---3 ---4-4-4-4-6-77777777888888884-4-4-4-
4-4-4-4-9------0---0---1---3---3---4-
--4---3---3---4---4---6-7-7-7-7-8---8 ---4---4---4---4---c----------0---2-2 -3---3---4-4-4-4-3---3---4-4-4-4-6-7-
7-7-7-8-8-8-8-4-4-4-4-4-4-4-4-a--