00:00
00:00
Newgrounds Background Image Theme
Upgrade Your Account!

Newgrounds made a lot of infrastructure upgrades this week and needs your help!

Become a Supporter for just $3 a month or $25 for the year.

Shout out to @travsaus for megaphone tankman!

Reviews for "Punk-o-matic 2"

this song rocks

(From The Heart)-Bdg-cba-aaD-gaD-eba-aav-cav-ca v-cba-bcBaJ-gaJ-ecB-aaJ-gcC-acA-adf-c df-cdf-cdf-cdf-cco-cco-ccp-caB-bcBaB-
gaB-ecB-aaB-fcBaB-caB-bcBaB-caB-bcBaB -caB-bcBaB-caB-aba-acB-acB-acB-acC-ac B-acB-acB-acC-acB-acB-acB-acC-adf-edi -Z-Z-Z-Z-o,-aif-ckZ-cjC-ciY-cif-ckZ-c jC-biY-cmY-ahT-akN-aix-ajq-ajq-ajq-ai M-aiP-amT-cmb-giP-aiP-ahT-akN-aix-ajq -ajq-ajq-aiM-aiM-ahT-akN-aix-ajq-ajq-
ama-aiY-ciY-ccg-ccS-cdX-cbu-ccg-ccS-c jqixkNjqbf-cbf-cdI-cdI-cbf-cbf-ckN-cm S-ccD-cbf-cdI-cmM-ccD-cbf-abj-adX-adX -adX-adX-abu-abu-abu-abu-aiM-ajq-ajU-
aky-akZ-ekX-Z-Z-Z-Z-o,cK-cbX-cbx-caX-
ccK-cbX-cbx-caX-caN-acA-cbN-cbn-caN-a aP-acA-cbN-cbn-caP-ccA-cbN-cbn-caN-cc A-cbN-cbn-aenbnaX-caX-cbx-cbX-ccK-caX -cbx-cbX-ccK-caN-caN-ccA-ccA-caN-caN-
ccA-ccA-cbN-caN-ccA-ccA-cbN-caN-aaP-a cK-acK-acK-acK-aaX-aaX-aaX-aaX-ada-cd a-ccK-ecJ-Z-Z-Z-Z-o,-biJ-ciJ-ckKkZ-bk gjC-biJ-ciJ-ckKkZkg-alI-ckN-aix-ajU-a ix-aky-akN-ajU-ajt-akN-cix-cjq-cjX-aj t-akN-aix-ajU-aix-aky-akN-ajU-ajq-akN -aix-ajU-aix-amc-ame-akg-clx-clx-clx-
clx-clx-clx-clx-clx-ciM-cix-ckN-ckN-c iM-cix-cmR-cmY-ciM-aix-ahT-akN-amT-cm T-ciM-aix-ahT-akN-akN-ahT-aix-aiM-akN -ahT-aix-aiM-ahT-aix-aiM-ajq-adX-amT-
cdV-Z-Z-Z-Z-o

Awesome Game!!

This is a epic game in NewGrounds
hey guys check my music

(Dogs)df-gcZ-Z-gcS-ccS-ccN-cak-cbB-Z-
Z-Z-Z-Z-Z-Q,ap-gpt-gpt-gpq-gkn-ghX-ce C-gji-cnz-omE-hiq-cfo-cju-cnz-kgN-kgJ -gaL-gjL-ckZ-Z-Z-Z-Z-Z-P,ak-Z-Vgo-ggk -seF-Z-Z-Z-Z-Z-X,if-kps-gpn-gkn-gkm-k ji-onB-koN-Z-Z-Z-Z-Z-Z-Y

great game

listen guys (After war)-fcO-ccz-cbv-jaG-hdt-abP-gbN-obv-
hcj-e!!du-cbI-gbI-gbN-gbI-gbJ-iaj-cac -jaV-cav-edf-Z-Z-Z-Z-Z-F,-thG-ghJ-goX -coY-coX-cga-dmy-cmA-cmy-caO-nmf-cmk-
coX-coY-coX-cga-cmf-cmk-cmg-cmC-cmD-d gJ-ggL-chU-Z-Z-Z-Z-Z-P,hg-ghi-ghg-ghh -khq-cfL-chq-ofv-ifj-ifr-ghq-ght-chq-
cfr-gfu-ibg-cgp-dfJ-cbe-Z-Z-Z-Z-Z-R,-
hov-hhl-gax-jhP-gez-chC-c!!my-cmA-cmy -dna-dkC-hfP-ghP-gez-chC-cfP-ghz-inV-
cnX-cnV-dbG-ccF-cbC-ccS-Z-Z-Z-Z-Z-F

i tried :p

-= Tabs for Untitled Song =-

=====================================
=====================================
========

Guitar Help
=====================================
=====================================
========

o = Open
m = Palm-Muted
x = Harmonics
r = Reversed Swell. Achieved with the volume button or a volume pedal.

=====================================
=====================================
========

Guitar 1 Tabs
=====================================
=====================================
========

0:00
E -------------------------------------
-------------------------------------
----------------------
B -------------------------------------
-------------------------------------
----------------------
G -------------------------------------
-------------------------------------
----------------------
D 2-----2-----2-----2-----4-----4-----4 -----4-----5-----5-----5-----5-----7-
----7-----7-----7-----
A 2-----2-----2-----2-----4-----4-----4 -----4-----5-----5-----5-----5-----7-
----7-----7-----7-----
E 0-----0-----0-----0-----2-----2-----2 -----2-----3-----3-----3-----3-----5-
----5-----5-----5-----
m-----m-----m-----m-----m-----m-----m -----m-----m-----m-----m-----m-----m-
----m-----m-----m-----

0:02
E -------------------------------------
-------------------------------------
----------------------
B -------------------------------------
-------------------------------------
----------------------
G -------------------------------------
-------------------------------------
----------------------
D -------------------------------------
-------------------------------------
----------------------
A -------------------------------------
-------------------------------------
----------------------
E -------------------------------------
-------------------------------------
----------------------
-------------------------------------
-------------------------------------
----------------------

0:05
E -------------------------------------
-------------------------------------
----------------------
B -------------------------------------
-------------------------------------
----------------------
G -------------------------------------
-------------------------------------
----------------------
D 2-----2-----2-----2-----4-----4-----4 -----4-----5-----5-----5-----5-----7-
----7-----7-----7-----
A 2-----2-----2-----2-----4-----4-----4 -----4-----5-----5-----5-----5-----7-
----7-----7-----7-----
E 0-----0-----0-----0-----2-----2-----2 -----2-----3-----3-----3-----3-----5-
----5-----5-----5-----
m-----m-----m-----m-----m-----m-----m -----m-----m-----m-----m-----m-----m-
----m-----m-----m-----

0:08
E -------------------------------------
-------------------------------------
----------------------
B -------------------------------------
-------------------------------------
----------------------
G 9-----11----12----11----------9-----9 -----7-----9-----------9-----7-----9-
----------9-----7-----
D x-----x-----x-----x-----------x-----x -----x-----x-----------x-----x-----x-
----------x-----x-----
A 7-----9-----10----9-----------7-----7 -----5-----7-----------7-----5-----7-
----------7-----5-----
E -------------------------------------
-------------------------------------
----------------------
o-----o-----o-----o-----o-----o-----o -----o-----o-----o-----o-----o-----o-
----o-----o-----o-----

0:11
E -------------------------------------
-------------------------------------
----------------------
B -------------------------------------
-------------------------------------
----------------------
G -------------------------------------
-----------7-----------------7-------
----------7-----------
D 9-----------------9-----------------9 -----------7-----------------7-------
----------7-----------
A 9-----------------9-----------------9 -----------5-----5--5--5--5--5-----5-
-5--5--5--5-----5--5--
E 7-----7--7--7--7--7-----7--7--7--7--7 -----7--7----------------------------
----------------------
o-----m--m--m--m--o-----m--m--m--m--o -----m--m--o-----m--m--m--m--o-----m-
-m--m--m--o-----m--m--

0:14
E -------------------------------------
-------------------------------------
-----

F-ing A

This game rules nice job! Here's one of my whole songs and one part that is cool (please add on as you like)
(Born From Flame Again)-hcf-gcf-gcf-gcf-gcf-gcf-gcf-gc f-gcf-gcf-gcf-gcf-gcf-Mcf-gdododocf-g cf-gcf-gcf-gcf-gcf-fdf-Z-Z-Z-Z-C,-hoh -coi-cnY-cnY-cnZ-cnZ-cod-coe-shF-goh-
coi-doa-bob-cot-col-cot-col-chF-ghF-E hd-rhF-gnY-cnY-cnZ-cnZ-cod-coe-cob-co a-jbu-Z-Z-Z-Z-C,-pgE-ggE-ggE-ggE-ggE-
ggE-ogG-ggE-ggE-ggE-ggE-ggE-ogE-zgE-g gE-ggE-ggE-ggE-ggE-faX-Z-Z-Z-Z-C,hd-g hd-ghd-ghd-ghd-ohd-ghd-ghd-ghd-ghd-gn L-cnL-chd-ghd-ghd-ghd-Hhd-ghd-ghd-ghd -ghd-nbu-Z-Z-Z-Z-C

(Through The Inferno)df-aaG-eaR-fbQ-gbx-idg-abO-Z-
Z-Z-Z-Z-Z-Z-N,ap-gcH-bjt-cjv-cji-cnK-
cob-cob-cmD-cmE-Z-Z-Z-Z-Z-Z-Z-J,ak-ed P-cdD-ceA-bec-cec-ceR-ceg-ceg-cfB-cfE -Z-Z-Z-Z-Z-Z-Z-H,if-ckC-ceC-beC-ceCeC -cmu-cmD-coH-coz-cnU-cnV-cnV-cnR-Z-Z-
Z-Z-Z-Z-Z-A