00:00
00:00

Virtual Electric Guitar

Share Collapse

Author Comments

EDIT: I will change the sound and add a preloader soon, if you do not like it, please don't just write "lame" write a simple review, thanks.

This is my second virtual guitar, first one being the classical guitar.

I have made a lot of changes, you will notice the script is much more fluid, you can play 2 notes at the same time and it does not lag. You can play a note for a long period by pressing on a note by the mouse or by the keyboard, to ring a note and play on top of the ringing note, press a key on the keyboard then hit shift then remove the key note you were playing while releasing the shift key right after.

Here are a few tabs:

Intro of Lonely day - System of a Down

-------------------- -------------------- -------------------- ----------------------
----------i-------- ----------u--------- -----------i---------- ------------u-------
--------3---3------ -------3---3------- --------1---1-------- --------2----2-----
----e--------e--- -----e--------e---- ------e--------e----- -----e----------e--
-a------------------ -------------------- --f----------------- --d------------------
-------------------- --v---------------- -------------------- -----------------------

Intro of One - Metallica
------------------ ------------------ -------------------- ------------------
------------------ ------------------ -------------------- ------------------
----------------- ------------------- ------------------- -------------------
----t----q------ ------t----q------- -----t-----q----- ----t---q--y-------
-d----d-------- ------------------ -d----d---------- ---------------------
---------------- --v-----v---------- ------------------ -v----v------------

Intro of When the smoke is going down - Scorpions

-------8-------0-8-7-- ---8-----------7--------
---------p-----------p- ------p-----------p-----
-------------3---------- ---------3-----------3--
--q-------------------- -------------------------
----------------------- ---s-----------f---------
------------------------ -------------------------

Intro of Californiacation - Red hot chili peppers

-------------- --------------------- ----------------------
--------u-i-- --------------------- ---------------------
-------------- --------------------- -----1--3-----------
----e------- --e--q-e-q--------- -------------q-----
-a----------- --------------------f- ----f------------f----
------------- ---------------------- -x--------------------

Intro of Pork & Beans - Weezer

--------------------
--------------------
--------------------
--------r---w-----
-----s-------------
--c----------------

Have fun!

Log in / sign up to vote & review!

Newgrounds accounts are free and registered users see fewer ads!

awesome! some please make a remake or game to teach how to player or newer simulator
make sure it works under 2 gb ram

try this one out 1 2 3 1 5 2 3 2 1 1 2 3 1 5 2 3 2 1 1 2 3 1 5

awesome

UNDONE WEEZER

4 5 4 5 6 5 4 5
e e t e

v f h f

great

Killing in the name of

-z----z----z------z-----------z-z-z--
b-b-b--z-z-z--b-b-b--z-z-z--b-b-b--z-
z-z--b-b-b---
----z-z-z--f-g-t-y--z-z-z--f-g-t-y--z -z-z--f-g-t----etc.

its kinda close i like it

7 9 - 7 7 9 - 7 qwe qwe lol
Frere Jacques, Frere Jacques, Dormez-vous? Dormez-vous

Hayaser responds:

Haha thanks, Awesome tab :D

Credits & Info

Views
146,413
Faves:
8
Votes
20
Score
3.33 / 5.00

Uploaded
Sep 10, 2009
5:59 AM EDT
Genre
Gadgets - Musical
Tags