00:00
00:00
Newgrounds Background Image Theme

Our goal is for Newgrounds to be ad free for everyone! Become a Supporter today and help make this dream a reality!

Virtual Classical Guitar

Share Collapse

Author Comments

You have the option to play the guitar with your keyboard, thus you can tab out songs for the keyboard, like so

Intro of Lonely day - System of a Down

-------------------- -------------------- -------------------- --------------------
----------u-------- ----------y--------- --------u---------- ----------y-------
--------3---3------ --------3--3------- ------1---1-------- -------2----2-----
----w--------w--- -----w------w---- ----w------w----- ------w--------w--
-a------------------ -------------------- --f----------------- --d----------------
-------------------- --c---------------- -------------------- --------------------

Intro of One - Metallica
------------------ ------------------ -------------------- ------------------
------------------ ------------------ -------------------- ------------------
----------------- ------------------- ------------------- -------------------
----r----Tab--- ------r----Tab-- -----r-----Tab--- ----r---Tab--1-
-d----d-------- ------------------ -d----d---------- ---------------------
---------------- --c-----c---------- ------------------ -c----c------------

------------------ ----------------- -------------------- -------------------
----------------- ------------------ -------------------- -------------------
---------------- ------------------- ------------------- --------------------
---r----Tab-- -------r----Tab-- -----r-----Tab---- ------------d---d-
d----d------- ----a----a-------- --d----d---------- ----------------x----
--------------- ------------------- -------------------- --Space-----------

Intro of When the smoke is going down - Scorpions

-------8-------0-8-7-- ---8-----------7--------
---------o-----------o- ------o-----------o-----
-------------3---------- ---------3-----------3--
--Tab----------------- -------------------------
----------------------- ---s-----------f---------
------------------------ -------------------------

Intro of Californiacation - Red hot chili peppers

-------------- --------------------- ----------------------
--------y-u-- --------------------- ---------------------
-------------- --------------------- -----1--3-----------
----w------- --w--tab-w-tab-- -------------tab-----
-a----------- --------------------f- ----f------------f----
------------- ---------------------- -z--------------------

Intro of Pork & Beans - Weezer

--------------------
--------------------
--------------------
--------e---q-----
-----s-------------
--x----------------

When you see the word "tab" you play the key tab and same with the word "space" you press the space bar.

Have fun!

Log in / sign up to vote & review!

Newgrounds accounts are free and registered users see fewer ads!

For iron man
--------------------
--------------------
--------------------
--------------------
-2--5--5-7-7--9-10-9-10-9-10-5-5-7-7-
--------------------

I love it

But please put on the intro for Link - System of a Down
I wuv that song

very cool

A recording feature would make this even more cool. I sat a long time messing with this and trying tabs.

Hayaser responds:

Hey thanks a lot for the review, ya would be sweet to have it record, got to look in to that

Should add

You should add complete song notes or keys

lag

this game lags a bit. tis very hard to play if its off.

Hayaser responds:

It sometimes lags during note changes, that is the keyboard response, it isn't lagging for me when i play a note though.

Credits & Info

Views
25,589
Faves:
19
Votes
19
Score
3.40 / 5.00

Uploaded
Apr 19, 2009
1:19 AM EDT