00:00
00:00

Punk-o-matic

Share Collapse

Author Comments

**UPDATE**
Punkomatic 1 will be made into an iPhone/Android app once we reach 1250 likes on our Punkomatic facebook!
(remove spaces)
http://www.facebook.com/PunkoMatic

**EDIT**
PLEASE DON'T SUBMIT POM SONGS ON THE AUDIO PORTAL AS THEY ARE NOT VALID ORIGINAL COMPOSITIONS. THANK YOU FOR YOUR COMPREHENSION AND HAVE FUN WITH THE GAME! :D

The one and only Punk-o-matic :P
Thanks for the support everybody!

The offline version and the tabs can be downloaded at www.evil-dog.com

-Voices And More-
IceWolf
-Soundtrack-
My band Chucks Nation! Check us out on newgrounds http://chucksnation.newgrounds.com/audio

Reviews


Rock it.

Well, this is pretty cool. The only thing that bothers me is sometimes the beat would play out of sync. Otherthan than that, I absolutely love it. Keep 'em comin'.

Check this out, pretty simple, pretty short...

9-3---3---6-6-6-6-77783---3---6-6-77787778-
------------------------------------------c-8---8-
--5-5---5-4---8---8---5-5-5-5-c----------------
------------------------------a-1---1---4-4-3-5-
----1---1---4-4-a---a---------------------------
-------------------



Punk Music

I really dont like punk, seeing as its the center of this game, I really dont like this game. I suppose it's well made and such, but it is in not to my liking.


Evil-Dog responds:

why do you waste your time trynig something called PUNK-o-matic if you hate punk music?
That's one of the dumbest thing anyone could do.


Adventesque

6-2---2---8888--1---1---1---1---1---1 ---1---1---1---2---2---2---2---0---0-
--0---5-9----0---0---5-5-----------c-
--2---2---2---2---2---2---c---c---9--
-9---9-------2---c-c----------------4 -a---a---a---3-4-3-4-2-4-2-4-5-6-5-6-
1---1-----6---6-----3-4-3-4-a-a--


People find this review helpful!

hmm

after a like 3 mins the songs strat sounding the same



cool

check my song

2---22---3----3-2---2---2------------
-------------------------------------
------------33--4----5--3--2---4---4-
-------------------------------------
-----------------------3-2-----3--1--
-1-----------------------------------
---------------------------------


Click on an icon to vote on this!

Credits & Info

Views
8,001,083
Faves:
12,853
Votes
128,330
Score
4.30 / 5.00

Uploaded
Jan 26, 2004
3:22 AM EST
Genre
Gadgets - Musical
  • Frontpaged April 14, 2008
  • Weekly Users' Choice January 28, 2004
  • Daily Feature January 27, 2004