Be a Supporter!

Punk-o-matic

Score:
rated 4.30 / 5 stars
Views:
7,981,402 Views
Share Links:
Genre:
Gadgets - Musical
Tags:
None

Credits & Info

Uploaded
Jan 26, 2004 | 3:22 AM EST
  • Frontpaged April 14, 2008
  • Weekly Users' Choice January 28, 2004
  • Daily Feature January 27, 2004

If you liked this, check these out!


Author Comments

**UPDATE**
Punkomatic 1 will be made into an iPhone/Android app once we reach 1250 likes on our Punkomatic facebook!
(remove spaces)
http://www.facebook.com/P unkoMatic

**EDIT**
PLEASE DON'T SUBMIT POM SONGS ON THE AUDIO PORTAL AS THEY ARE NOT VALID ORIGINAL COMPOSITIONS. THANK YOU FOR YOUR COMPREHENSION AND HAVE FUN WITH THE GAME! :D

The one and only Punk-o-matic :P
Thanks for the support everybody!

The offline version and the tabs can be downloaded at www.evil-dog.com

-Voices And More-
IceWolf
-Soundtrack-
My band Chucks Nation! Check us out on newgrounds http://chucksnation.newgr ounds.com/audio (remove the space from the URL)

Reviews


Sma861Sma861

Rated 5 / 5 stars

ACE!

91--3--2--------0---6---4-80---882---
--------3-88-3-88-3----800000000---3-
---1---5---c-1--38-2--0------bb-7---5 -0----3-2--------c---c---c---c---2---
3-3--5-43-2---1---8---a-5553--------0 -----8-8--9-0--2-1------0---a---a---a ---a---2-223-3--5-43-2-2-1---5---

thats mine it was done quickly but give it a go and see what you think ... if you make any changes to it then send me the code cos id always like to ahve a listen :D


People find this review helpful!

TygrathorTygrathor

Rated 5 / 5 stars

So awsome

Awsome this is so cool i love it


People find this review helpful!

UnlimitedarkUnlimitedark

Rated 5 / 5 stars

Listen to THIS :D

95-5-0---0---0---0---1---1---0---80--
-0---2---2---6-681---0---1---3---3---
0---3---8--c-b-b0---0---0---0---2---2 ---0---b2---2---4---4---4---4---0---0 ---7---7---8---8----b-a--------a---0-
--0-3-a---a---222--a---a---1---1-8-a-
------444-444-------8-a---0---a--

and...

---7---80---0---4-5-4-5--6-80---0---1 ---1---5-5-5-5-4-0---0---5-5-2---6-6-
6-89---0---0---0---a---a---7-7-7-7---
--0---0---2---2---9---9-----4---4---9 ---9-----9---b----b-----------0---0--
-1---1---666-0---0-8-a---a-444-4-7-7-
8-------8-222-222-8-2----8-9-a---



sideshowbawbsideshowbawb

Rated 4.5 / 5 stars

Awesome, just awesome

The only complaint I have is the occasional lag when changing tracks. If that was fixed the game would be fucking perfect. Oh and try this one out: ----------------------3---3---8887100 10--1---5-80---1---0---86-588----9---
-----------
--------------0---0---0---0---1---1--
-1---0---0---0---8---5-b5-3-5c---c---
----------
-5-6-7-7-8-a-----------------9-2-2-0-
--0---3-4-5-0---1---1---6-7-8-3-4-a--
------------

Tried to make a complete song ^^



DBZmeDBZme

Rated 4.5 / 5 stars

try this

0-0-0-0-0-0-1-2--1---0-0---
5-5--1--0-0-0------2---9-----
-------------------------------7-7
---7-7--0---4---1-3-6----7--6--1
-7--8---b----b----------------------
----------------0-----3-4--0--7-a-3-7
---a--0-----0-7--0---a---a-----------
-----------------------

try this song, mainly solos, no drum solos tho...

Great game, only thing is no notes and there is no preview (i might be wrong about this.)