Be a Supporter!

Punk-o-matic 2

Score:
rated 4.46 / 5 stars
Views:
4,238,411 Views
Share Links:
Genre:
Rhythm
Tags:
music
band
rock
punk

Credits & Info

Uploaded
Jan 20, 2010 | 12:28 AM EST
  • Frontpaged January 27, 2010
  • Daily Feature January 21, 2010
  • Weekly 3rd Place January 27, 2010

If you liked this, check these out!


Log in to save your medals! Don't have an account? Create one for free!

Inspiration 5 Points Learn 1 cover!
Junk Keeper 5 Points Collect 10 stage items!
New Comer 5 Points Play a good concert at the garage!
Perfectionist I 5 Points Play a perfect song during a concert!
Streak Novice 5 Points Do a 100 notes streak!
Crazy Gig 10 Points Play a sold-out concert at the concert hall!
From The Best 10 Points Learn 5 covers!
Full Bar 10 Points Play a sold-out concert at the bar!
Junk Amateur 10 Points Collect 25 stage items!
Local Punker 10 Points Play a good concert at the bar!
Perfectionist II 10 Points Play 2 perfect songs during a concert!
Popular 10 Points Play a sold-out concert at the garage!
Rising Star 10 Points Play a good concert at the theater!
Serious Player 10 Points Play a good concert at the concert hall!
Streak Apprentice 10 Points Do a 250 notes streak!
Grand Night 25 Points Play a sold-out concert at the theater!
Homage 25 Points Learn 15 covers!
Junk Hunter 25 Points Collect 50 stage items!
Perfectionist III 25 Points Play 3 perfect songs during a concert!
Rocking The World 25 Points Play a sold-out concert at the stadium!
Shining Star 25 Points Play a good concert at the stadium!
Streak Master 25 Points Do a 500 notes streak!
Cover Band 50 Points Learn 30 covers!
Junk Collector 50 Points Collect 100 stage items!
Punk Legend 50 Points Play a good concert at the park!
Writing History 50 Points Play a sold-out concert at the park!

Author Comments

Hello everyone! Here's a massive submission for you!!! I worked very long and hard on this with a bunch of people! I really hope you enjoy Punk-o-matic 2! Create songs, share them, make a band, do concerts & more! Connect with other people on here and on the official website.

Official website: punk-o-matic.net
Official facebook: http://www.facebook.com/P unkoMatic
Official youtube: http://www.youtube.com/us er/OfficialPunkoMatic

LAG: If you're having lag problems, lower the quality in the options, reduce the animation level and disable the concert lights. You can also download the game @punk-o-matic.net and that should help a lot.

Make sure you check out the Tips in-game and on the Official Website to help you make some awesome songs.

Punk-o-matic Pro is in development. For more information, check out this link (remove the spaces):
http://www.punk-o-matic.n et/index.php?option=com_c ontent&view=article&id=19 7&Itemid=133

The mobile version of Punkomatic 1 will also be available soon.

Reviews


SantusSanSantusSan

Rated 5 / 5 stars

Very Nice Game

The Game Rocks Mann^^


People find this review helpful!

OhCrapMusicOhCrapMusic

Rated 5 / 5 stars

OMG FINALLY

I haven't even played it yet, im basing the review off the first one cause it was one of the best time wasters EVER, you my friend are awesome and get a cookie, a special cookie :)



Legion89Legion89

Rated 5 / 5 stars

Darkness

Darkness by Undiscovered The. Hope you guys like it :): (Darkness)bD-gbw-gbA-gaa-gab-gcB-acB-
ach-gdf-mbz-gbz-gbz-gbE-gab-gab-gab-g ab-gaa-gbz-mdf-Z-Z-Z-Z-Z-A,ah-cah-caT -cah-cak-cak-cgS-cgT-cbl-cbl-caa-cab-
cab-can-mah-cah-cgp-cgt-cgu-cgu-cae-c af-cnm-cnp-cnl-cah-cgP-ggT-cgV-cnN-cn N-cah-cah-cgR-Z-Z-Z-Z-Z-G,af-caf-caF-
caf-cah-cah-cgt-cgu-caR-caR-caa-caa-c aa-caj-aac-cax-gaa-cae-caf-caf-caj-ca j-caj-saf-cgq-ggu-cgw-kaf-caj-Z-Z-Z-Z -Z-K,ah-cne-cnd-cnd-cne-cni-cnK-cnN-c nS-cnV-caa-cat-caa-cao-mah-cah-cgp-cg t-cgv-cgu-cae-caf-cnl-cah-cnm-cah-cgQ -ggU-cgV-cnN-cnN-cah-cns-cgR-Z-Z-Z-Z-
Z-G


People find this review helpful!

SiLeNtXSn1p3zSiLeNtXSn1p3z

Rated 5 / 5 stars

Blown out the Water

The best game i have ever played, the fact you can listen to other people's songs is amazing..... Put this inta your data and listen -= Tabs for Rappers and Slappers =- a great tune

E -------------------------------------
-------------------------------------
----------------------
B -------------------------------------
-------------------------------------
----------------------
G -------------------------------------
-------------------------------------
----------------------
D 2-----------------------8-----8--8--8 --8--8--8--8--8--8--8--8--8--8--8--7-
----7--7--7--7--7--7--
A 2-----------------------8-----8--8--8 --8--8--8--8--8--8--8--8--8--8--8--7-
----7--7--7--7--7--7--
E 0-----------------------6-----6--6--6 --6--6--6--6--6--6--6--6--6--6--6--5-
----5--5--5--5--5--5--
o-----------------------o-----m--m--m --m--m--m--m--m--m--m--m--m--m--m--o-
----m--m--m--m--m--m--

0:02
E -------------------------------------
-------------------------------------
----------------------
B -------------------------------------
-------------------------------------
----------------------
G -------------------------------------
-------------------------------------
----------------------
D 7--7--7--7--7--7--7--7--4-----4--4--4 --4--4--4--4--4--4--4--4--4--4--4--9-
----------------------
A 7--7--7--7--7--7--7--7--4-----4--4--4 --4--4--4--4--4--4--4--4--4--4--4--9-
----------------------
E 5--5--5--5--5--5--5--5--4-----4--4--4 --4--4--4--4--4--4--4--4--4--4--4--7-
----------------------
m--m--m--m--m--m--m--m--o-----m--m--m --m--m--m--m--m--m--m--m--m--m--m--o-
----------------------

0:05
E -------------------------------------
-------------------------------------
----------------------
B -------------------------------------
-------------------------------------
----------------------
G -------------------------------------
-------------------------------------
----------------------
D 8-----------------------9------------
-----------8-----------------------8-
----8--8--8--8--8--8--
A 8-----------------------9------------
-----------8-----------------------8-
----8--8--8--8--8--8--
E 6-----------------------7------------
-----------6-----------------------6-
----6--6--6--6--6--6--
o-----------------------o------------
-----------o-----------------------o-
----m--m--m--m--m--m--

0:08
E -------------------------------------
-------------------------------------
----------------------
B -------------------------------------
-------------------------------------
----------------------
G -------------------------------------
-------------------------------------
----------------------
D 8--8--8--8--8--8--8--8--7-----7--7--7 --7--7--7--7--7--7--7--7--7--7--7--4-
----4--4--4--4--4--4--
A 8--8--8--8--8--8--8--8--7-----7--7--7 --7--7--7--7--7--7--7--7--7--7--7--4-
----4--4--4--4--4--4--
E 6--6--6--6--6--6--6--6--5-----5--5--5 --5--5--5--5--5--5--5--5--5--5--5--4-
----4--4--4--4--4--4--
m--m--m--m--m--m--m--m--o-----m--m--m --m--m--m--m--m--m--m--m--m--m--m--o-
----m--m--m--m--m--m--

0:11
E -------------------------------------
-------------------------------------
----------------------
B -------------------------------------
-------------------------------------
----------------------
G -------------------------------------
-------------------------------------
----------------------
D 3-----3--3--3--3--3-----4-----4-----4 -----4-----3-----3-----3-----3-----4-
----4-----4-----4-----
A 3-----3--3--3--3--3-----4-----4-----4 -----4-----3-----3-----3-----3-----4-
----4-----4-----4-----
E 1-----1--1--1--1--1-----4-----4-----4 -----4-----1-----1-----1-----1-----4-
----4---



klpo33klpo33

Rated 5 / 5 stars

epic

i love the entire concept and the story mode makes it that much better. the only flaw i found was that prices are a little high, i mean 125 bucks for jeans? $8OO for a guitar? i saw a bc rich marlock with the avenger finish for $175 at my local music shop. other then that, amazing game.


People find this review helpful!