Be a Supporter!

Credits & Info

Uploaded
Jan 26, 2004 | 3:22 AM EST
  • Weekly Users' Choice January 28, 2004
  • Daily Feature January 27, 2004

Related Stuff

If you liked this, check these out!


Plenty more like this here!


Author Comments

**UPDATE**
Punkomatic 1 will be made into an iPhone/Android app once we reach 1250 likes on our Punkomatic facebook!
(remove spaces)
http://www.facebook.com/P unkoMatic

**EDIT**
PLEASE DON'T SUBMIT POM SONGS ON THE AUDIO PORTAL AS THEY ARE NOT VALID ORIGINAL COMPOSITIONS. THANK YOU FOR YOUR COMPREHENSION AND HAVE FUN WITH THE GAME! :D

The one and only Punk-o-matic :P
Thanks for the support everybody!

The offline version and the tabs can be downloaded at www.evil-dog.com

-Voices And More-
IceWolf
-Soundtrack-
My band Chucks Nation! Check us out on newgrounds http://chucksnation.newgr ounds.com/audio (remove the space from the URL)

Reviews


Rockwell12Rockwell12

Rated 5 / 5 stars June 19, 2013

This is an amazing game to help make an actual song out of parts made by Evil_Dog himself.
I recommend this game!
For all those wondering, this is my (not-so-awesome) song!
--4-4-4-2---2---1---1-------6-8888-8-
9---1---1---9------------------------
-----------c---c---6-9---6-4---4---4-
--4---4---13-6-4---4---c-------------
----------------------a---a---3-4-5-4 -6-7-6-8--------------a---6-7-6-8-a--
---------------------------------
It is amazing, in my opinion.
Vote helpful if you liked my review or if you liked my song!


People find this review helpful!

wwelover25wwelover25

Rated 5 / 5 stars June 17, 2013

I just love this game! So easy to use yet so amazing!

Check out my stupid song that I made by clicking randomly:

9-2--0-0-----------------------------
-------------------------------------
-----------c-1100001-----------------
-------------------------------------
----------------------a-1-002--------
-------------------------------------
---------------------------------



icarussicaruss

Rated 5 / 5 stars June 14, 2013

this game is soooooo awesome my brain just melted (i don't know how i just wrote this review ).



johnbetonjohnbeton

Rated 5 / 5 stars June 13, 2013

A combo of the two demos hope you like it :P

89891---1---1--83--83--80---1---0---1 -6-3---3---2---1-5788873--83--83--82-
--1-57888799c9c9---9---9---a---a---0-
--0---0---0---8---8---80--8--6c--aa--
-a---a---80--8--6c--ab-a-a---2a--2a--
2575357537-7-1-4-7-7-1-6-1---1---7-6-
874-a-9-----575357537-6-874-a-9--



DRUMERBOY83DRUMERBOY83

Rated 5 / 5 stars June 11, 2013

9-----4-2--51-6-9-----6-3---3---9----
-783---3---3---3---3---9-------------
-----------c---a---a---a-6-2---2---0-
--0-6-1---1---1---a---1---a---1---c--
-b--------------------5-5-5-59a------
-0---2-4-7-6-8-9-a---------------1---
5-3-1---a------------------------

Just a quick song I made. Can't believe I'm still playing this game after so many years...