Be a Supporter!

Credits & Info

Uploaded
Jan 26, 2004 | 3:22 AM EST
  • Weekly Users' Choice January 28, 2004
  • Daily Feature January 27, 2004

If you liked this, check these out!


Author Comments

**UPDATE**
Punkomatic 1 will be made into an iPhone/Android app once we reach 1250 likes on our Punkomatic facebook!
(remove spaces)
http://www.facebook.com/P unkoMatic

**EDIT**
PLEASE DON'T SUBMIT POM SONGS ON THE AUDIO PORTAL AS THEY ARE NOT VALID ORIGINAL COMPOSITIONS. THANK YOU FOR YOUR COMPREHENSION AND HAVE FUN WITH THE GAME! :D

The one and only Punk-o-matic :P
Thanks for the support everybody!

The offline version and the tabs can be downloaded at www.evil-dog.com

-Voices And More-
IceWolf
-Soundtrack-
My band Chucks Nation! Check us out on newgrounds http://chucksnation.newgr ounds.com/audio (remove the space from the URL)

Reviews


GrimsvillGrimsvill

Rated 0 / 5 stars

Punk-O-Matic ROCKS!

------6-6-1---1---1---1-6-6-1---1---1 ---1---88888888881---1-881---1---1---
1---98989------0-0---c-0-a-0-c-0-a-cc cc0---a---a---7-7-70707-7-6-c-0-a-c-0 ---a---a---a---ccccc--5-5-------5-a-6 -a-7-a-8-aa885-5-6-7-5-6-7-8-678-4-4-
4-5-a-6-a-5-5-6-7-5-6-7-8-aaaaa8- THIS IS PURE METAL!!!



KharlanKharlan

Rated 0 / 5 stars

Great Game

I spent alot of time on this game a long time ago and decided to mess around with it again. Anyways, I spent alot of time on this song and I really think others will enjoy it as much as I have.

0--11111-0---0---0---4-4-1---1---9-6-
0---0---0---490---0---1---1---1---988 88811---9-9---cbcb6-4---4---0---a---c ---7-7-b---2---3-3-3-3-b-4---0---0---
0---0---bb-7-7-4---c-b---a-a-9----aa-
-aa-------0---0---a---1---7-6-8-6--aa --aa--8-7-6-0---0--9-5-5--a------

If you can, let me know if you like or not (I prefer negative feedback if it's constructive).



AmonZ1AmonZ1

Rated 0 / 5 stars

Check this out

Heres one of my songs 2---3---3---3---0---2---3-----2----3-
--3---3---0---0---1---3---3----------
---------------3---3---3---3-3-1---5-
3-3--1---3---3---7-5-9---3-2-4---3---
3----------------------------------2-
-2-3--2--------6----------------0---2 -7-1-----------------------------



robbinx1robbinx1

Rated 0 / 5 stars

my awsome song

9------------------------------------
---------3---53----------------------
-----------c---0---1---2---3-4---5-6-
7-8---9---a---b-0---1---3-4---0---1--
-2---3--4----5-6-7-9-ba--------------
--------------------------0---1---2-2 -3--0---1---2-3-4-5-6-7-8-9-a----



HatakiHataki

Rated 0 / 5 stars

my song

i know alot of people say their songs r good but i mean it this time,please listen too it and tell me wat u think

----0---7777777777770----0---2---9---
0---2--0---1---1---2---3---4-5-5-2-9-
-----------7-7-c-4-4-c-7-8-4-9---0---
2---4---8---3---------0---1---2---3-3 -4---5-2-c------4---7-----a---1---7-7 -6-8-1---3-3-4-5-1-8-5-3---------0---
1---2-2-3-3-4-3-5-1-a------------