Be a Supporter!

Credits & Info

Uploaded
Jan 26, 2004 | 3:22 AM EST
  • Weekly Users' Choice January 28, 2004
  • Daily Feature January 27, 2004

Related Stuff

If you liked this, check these out!


Author Comments

**UPDATE**
Punkomatic 1 will be made into an iPhone/Android app once we reach 1250 likes on our Punkomatic facebook!
(remove spaces)
http://www.facebook.com/P unkoMatic

**EDIT**
PLEASE DON'T SUBMIT POM SONGS ON THE AUDIO PORTAL AS THEY ARE NOT VALID ORIGINAL COMPOSITIONS. THANK YOU FOR YOUR COMPREHENSION AND HAVE FUN WITH THE GAME! :D

The one and only Punk-o-matic :P
Thanks for the support everybody!

The offline version and the tabs can be downloaded at www.evil-dog.com

-Voices And More-
IceWolf
-Soundtrack-
My band Chucks Nation! Check us out on newgrounds http://chucksnation.newgr ounds.com/audio (remove the space from the URL)

Reviews


SilentPunk707SilentPunk707

Rated 0 / 5 stars March 19, 2010

Rise Up Againts Punks

6-1----7--9-6-3---9---5---5-3---4-66-
9-53---9-66-999----------------------
-------------1-8-4---c---5---7-45--6-
8-4-----1--c--4----8---ccc-----------
------------------------6-7-6---a---3 -9---6--4--7-6-9-6-888a---2--7-6-3aaa ---------------------------------



kimpoy1212kimpoy1212

Rated 0 / 5 stars March 18, 2010

THE BEST SONG title heat beater and heart fucker

-0a--a------------------------------ and 9331---4-3---02---2---21--3131---3---
-------------------------------------
-----------c111---1---4---22---2---1-
34-156-1-----------------------------
----------------------a-121---2-2-12-
2-2-2-622-238-0---0------------------
---------------------------------



killerkid3212killerkid3212

Rated 0 / 5 stars July 11, 2009

hey check this out

----------------2---2---3---3---3----
---3-----6-3---3---3---3---3---2---2-
----6------0---c---2---c---1---2---8-
--8---7-7-a---8---c---4---4---8---8--
-4---8---1---2-8-c---ba---1---a---2-6 -6-1---4-1---1-2-2-6-57571---a---7-8-
8-7-1---1-2-5-5-1---0-----6-a----


People find this review helpful!