Be a Supporter!

Credits & Info

Uploaded
Jan 26, 2004 | 3:22 AM EST
  • Weekly Users' Choice January 28, 2004
  • Daily Feature January 27, 2004

If you liked this, check these out!


Author Comments

**UPDATE**
Punkomatic 1 will be made into an iPhone/Android app once we reach 1250 likes on our Punkomatic facebook!
(remove spaces)
http://www.facebook.com/P unkoMatic

**EDIT**
PLEASE DON'T SUBMIT POM SONGS ON THE AUDIO PORTAL AS THEY ARE NOT VALID ORIGINAL COMPOSITIONS. THANK YOU FOR YOUR COMPREHENSION AND HAVE FUN WITH THE GAME! :D

The one and only Punk-o-matic :P
Thanks for the support everybody!

The offline version and the tabs can be downloaded at www.evil-dog.com

-Voices And More-
IceWolf
-Soundtrack-
My band Chucks Nation! Check us out on newgrounds http://chucksnation.newgr ounds.com/audio (remove the space from the URL)

Reviews


eureka7eureka7

Rated 0 / 5 stars

tht was so bad ass

this is awsome game peeps listen this one my friend made
--------3---0------5-2---2----5-5---0 ---3---56--2-----0-----4----------5--
--------7799---6-4-1-010-2---1-7-----
2--1---386-15-----7-------3--1---3--8 --3---5-----2-7-8--6-----------------
-0------56--9------------4-9-5-9-3a08 -4-------2-2-2-2-7-1----------9--



masimoto3masimoto3

Rated 0 / 5 stars

this was cool

can't stay gotta go right now must make more songs.
9---1-2---30------------2----2---1---
5----3---2---2--------------222221---
-221---25-20003--5--2----8---------8-
---3-4---2-----4---1----1---2---12---
3------5-5--4---6-a---a-----5-4-5--5-
-1---1----a---8-8-1---5--a---8-3-5-a-
------------------8-5-3-8-a-a--a-



joecalisjoecalis

Rated 0 / 5 stars

This game is so cool!!!

k, I've try this game just once and i liked it... check out my tune!!!
9321---14-3-325-4-19---------42---3--
-8889--------------------------------
-----------c321--573516360040-ba9a9a9 a6-c--2-a---bbbc---------------------
----------------------a321---101373-4 -222a---------42-4-1---999a----------
---------------------------------



AsgrymAsgrym

Rated 0 / 5 stars

Disgraceful.

It's people like you that take the good name of 'Punk' and ruin it. Those tracks were Green Day wannabe stand-ups. This is a true disgrace to punk music.

Seriously, try listening to The Clash. I opened this, expecting to hear some realu punk music. But no, I hear more Blink 182 crap.

With this submission, you have killed punk music.


Evil-Dog responds:

I'm sure I did!


rikonrikon

Rated 0 / 5 stars

my first song made!!!

--1-8883-32---56565695692-99999949452 --92--99---3--3-884-4-4-4--2---2---29 99-9-------5-5-c--8-8-bb1---1--1---1-
-3-3-3-3-3-2-c8--cc---5-5-5-3-3-3-5-5 c--------0ccc-c--b---------9-4-4-77-6 -0-2-1---0--3-3-3-3-3-4-a--9aa-7-7-6-
a----------a-7-6-7-6-aaa-a-------

kinda long but worth it!!!