Be a Supporter!

Credits & Info

Uploaded
Jan 26, 2004 | 3:22 AM EST
  • Weekly Users' Choice January 28, 2004
  • Daily Feature January 27, 2004

If you liked this, check these out!


Author Comments

**UPDATE**
Punkomatic 1 will be made into an iPhone/Android app once we reach 1250 likes on our Punkomatic facebook!
(remove spaces)
http://www.facebook.com/P unkoMatic

**EDIT**
PLEASE DON'T SUBMIT POM SONGS ON THE AUDIO PORTAL AS THEY ARE NOT VALID ORIGINAL COMPOSITIONS. THANK YOU FOR YOUR COMPREHENSION AND HAVE FUN WITH THE GAME! :D

The one and only Punk-o-matic :P
Thanks for the support everybody!

The offline version and the tabs can be downloaded at www.evil-dog.com

-Voices And More-
IceWolf
-Soundtrack-
My band Chucks Nation! Check us out on newgrounds http://chucksnation.newgr ounds.com/audio (remove the space from the URL)

Reviews


AmonZ1AmonZ1

Rated 0 / 5 stars

Check this out

Heres one of my songs 2---3---3---3---0---2---3-----2----3-
--3---3---0---0---1---3---3----------
---------------3---3---3---3-3-1---5-
3-3--1---3---3---7-5-9---3-2-4---3---
3----------------------------------2-
-2-3--2--------6----------------0---2 -7-1-----------------------------



robbinx1robbinx1

Rated 0 / 5 stars

my awsome song

9------------------------------------
---------3---53----------------------
-----------c---0---1---2---3-4---5-6-
7-8---9---a---b-0---1---3-4---0---1--
-2---3--4----5-6-7-9-ba--------------
--------------------------0---1---2-2 -3--0---1---2-3-4-5-6-7-8-9-a----



HatakiHataki

Rated 0 / 5 stars

my song

i know alot of people say their songs r good but i mean it this time,please listen too it and tell me wat u think

----0---7777777777770----0---2---9---
0---2--0---1---1---2---3---4-5-5-2-9-
-----------7-7-c-4-4-c-7-8-4-9---0---
2---4---8---3---------0---1---2---3-3 -4---5-2-c------4---7-----a---1---7-7 -6-8-1---3-3-4-5-1-8-5-3---------0---
1---2-2-3-3-4-3-5-1-a------------



2046420464

Rated 0 / 5 stars

badass DOOOD!!!!!

----0---0---1---1---2---2---5-6----77 788888877------5-5-5-6-6-6---881---2-
--0---0----0---0---0---2---2---2---3-
6-6-8---8---5-5-7-7---b-b-b4b4---4---
-0---c-bbbbc-1---1---c1---1---1---2-2 -2-2-2-2-2-3-4-4----8-8-8-8-4-55-5-5-
5-5-1---1---2-2---------4-4-4-4--
thats my song nothing fancy but let me know what y'all think



CrackedUpPandaCrackedUpPanda

Rated 0 / 5 stars

Great

Good game, heres my song 882-80----7-0---1-----4-5---83-3-3---8-889-----------c---a-
--2---2--------6-a---3----a---1---0---a---5-a---b9---5-0-0-0
---6-bbc-----------a-8---------2-75753579------3-4-8-2-1---3
-1210--------9------0-0-0---9---a-----------