Be a Supporter!

Credits & Info

Uploaded
Jan 26, 2004 | 3:22 AM EST
  • Weekly Users' Choice January 28, 2004
  • Daily Feature January 27, 2004

If you liked this, check these out!


Author Comments

**UPDATE**
Punkomatic 1 will be made into an iPhone/Android app once we reach 1250 likes on our Punkomatic facebook!
(remove spaces)
http://www.facebook.com/P unkoMatic

**EDIT**
PLEASE DON'T SUBMIT POM SONGS ON THE AUDIO PORTAL AS THEY ARE NOT VALID ORIGINAL COMPOSITIONS. THANK YOU FOR YOUR COMPREHENSION AND HAVE FUN WITH THE GAME! :D

The one and only Punk-o-matic :P
Thanks for the support everybody!

The offline version and the tabs can be downloaded at www.evil-dog.com

-Voices And More-
IceWolf
-Soundtrack-
My band Chucks Nation! Check us out on newgrounds http://chucksnation.newgr ounds.com/audio (remove the space from the URL)

Reviews


creamy23creamy23

Rated 5 / 5 stars

SWWWWWWEEEEEEEETTTTTT!!!!!!!!!!!!!!!!!!!!!

Man This Shit is Awsome Dooooode!ha ha ha ha ha



twisted-freak-666twisted-freak-666

Rated 5 / 5 stars

heres my song....

---96-893-3-3---3---3---3---9-
6-2---2---2---2----9------
9993-3---33---3---7777777979-
1---0---0---0---0-----0---1---
0-4---
0---4---0---0---a---0---0---0-
--0---
0---0---0----------------8-a-4 -a-4-
a-4-a-----4-4-4-2-1---4-4-4-4-
----4-
4-a------4-4-4-4-4-4-4-4-a-



andhinationandhination

Rated 5 / 5 stars

awesome

meh, everyone else is puttin there song on so whatever 2--6-8889-------2---2---2---2----9---
-----------2---0---0-----------0---0-
--0--9-------------1---1---1---1---1-
--1-----1---1-----1---1---4---4---4--
-4---4---4---4--c--------------------
---------7-7-7-7-6-7-7-7-7-4-7-7-7-7-
1-2-1-2-a---------------0--a-----



ilovegirlzilovegirlz

Rated 5 / 5 stars

Try this out for size

Ya might wanna turn yo speakers down cuz it is going to get loud in here
9---0---6-0----0----0----99----6-6-6-
6-776-6-9----0----1----2----3----4-9-
--
8----10----6-0----0----8----121210---
-10----10----10----10----1210----10--
--12---
10----7-9-1----1----1----1010----0---
-0----7-7-7-7-7-7-10----10---


People find this review helpful!

headcollectorheadcollector

Rated 5 / 5 stars

Check this out

Hey check my shit out
--03---2-----2----3-----1---2-1-9----
-0-----0---5-9--c-0-0---2---0---1---5 -6-3---8----300-2----004------4----a-
---2--9----00-----0---3-9--a---0---2-
0---2-1---5----3-3-542----2-1-11----0 ---802-8--a------a---0---9-a---32-9-9 -