Be a Supporter!

Credits & Info

Uploaded
Jan 26, 2004 | 3:22 AM EST
  • Weekly Users' Choice January 28, 2004
  • Daily Feature January 27, 2004

If you liked this, check these out!


Author Comments

**UPDATE**
Punkomatic 1 will be made into an iPhone/Android app once we reach 1250 likes on our Punkomatic facebook!
(remove spaces)
http://www.facebook.com/P unkoMatic

**EDIT**
PLEASE DON'T SUBMIT POM SONGS ON THE AUDIO PORTAL AS THEY ARE NOT VALID ORIGINAL COMPOSITIONS. THANK YOU FOR YOUR COMPREHENSION AND HAVE FUN WITH THE GAME! :D

The one and only Punk-o-matic :P
Thanks for the support everybody!

The offline version and the tabs can be downloaded at www.evil-dog.com

-Voices And More-
IceWolf
-Soundtrack-
My band Chucks Nation! Check us out on newgrounds http://chucksnation.newgr ounds.com/audio (remove the space from the URL)

Reviews


iamrichardhiiamrichardhi

Rated 5 / 5 stars

awsome her are mysongs

9-9-5-0---0---2---1---4--0---2---8878 -------------------------------------
-----------c-c-3-4---0---0---1---3--0 ---2---4-----------------------------
----------------------a-a-3-3-4-4-0--
-3-2-1----0---2-2-4-3----------------
---------------------------------

next one is

3---3---5-2---2---1---0-----0---1--1-
--6-3---3----9---9-------------------
-----------5-5-5-5---2---3-1---2---1-
--3-5-2---1--1---b5-1---2---b--------
----------------------a---a-----4-7-2 -0---3-3-a---1---5-2-0---2-0---0---1-
---------------------------------



Skateme96Skateme96

Rated 5 / 5 stars

This game is tight

This game is asome try it



crashjr34crashjr34

Rated 5 / 5 stars

Terrific game man!

Really good, put alot a though in this game. Here's something I made, hope people like it.

0---1----3---11---540---6-15-60---375 1-6-75382-1---09---1-0---4-5-89------
-----------3-5-7-8------5-7-9---a----
---------0-----a---1b4---6-8--9---7-c ---2bc----------------0---1---3-4-5--
6---------7-4-1---5-----9--a-4-5-1---
----2-3-4-7-8-6-a----------------



Ghost-HunterGhost-Hunter

Rated 5 / 5 stars

Make more

Kick ass game, make some more different genres of music. My song is -5-3-0-------2---------0------------2-8-2-3----------4--



dudedude03dudedude03

Rated 5 / 5 stars

rox!

hey! great game! I made a li'l composition here. name is "stairwell to hell"
----1---2-----4-4-4---9---3-----