Be a Supporter!

Credits & Info

Uploaded
Jan 26, 2004 | 3:22 AM EST
  • Weekly Users' Choice January 28, 2004
  • Daily Feature January 27, 2004

If you liked this, check these out!


Author Comments

**UPDATE**
Punkomatic 1 will be made into an iPhone/Android app once we reach 1250 likes on our Punkomatic facebook!
(remove spaces)
http://www.facebook.com/P unkoMatic

**EDIT**
PLEASE DON'T SUBMIT POM SONGS ON THE AUDIO PORTAL AS THEY ARE NOT VALID ORIGINAL COMPOSITIONS. THANK YOU FOR YOUR COMPREHENSION AND HAVE FUN WITH THE GAME! :D

The one and only Punk-o-matic :P
Thanks for the support everybody!

The offline version and the tabs can be downloaded at www.evil-dog.com

-Voices And More-
IceWolf
-Soundtrack-
My band Chucks Nation! Check us out on newgrounds http://chucksnation.newgr ounds.com/audio (remove the space from the URL)

Reviews


mrmanpicklemrmanpickle

Rated 5 / 5 stars

Sweet game

A couple of songs I made

Song 1
9-9--9-9--9-9--88848888888833-
------------------------------
-------------------------0-0--
0-0--0-0--0---7-7-bbbbbbb-----
------------------------------
--------------------7-5-87-5-8 7-5-87-5-----8---88-a---------
------------------------------
---------------

Song 2
3---688889-994-4-4-4-99-3--688 889-994-4-4-4-99-3--688689-99-
-33-9--------------------02---
8---a---1---1---6-5-2--8---a--
-1---1---6-5-2--8--8---c--bbc-
-c------------------a3----7-8-
6----------8-a-3---7-8-6------
----8-a-3---7--7-8-a-88-aa----
---------------

Song 3
3---688889-994-4-4-4-99-3--688 889-994-4-4-4-99-3--688689-99-
-33-9--------------------02---
8---a---1---1---6-5-2--8---a--
-1---1---6-5-2--8--8---c--bbc-
-c------------------a3----7-8-
6----------8-a-3---7-8-6------
----8-a-3---7--7-8-a-88-aa----
---------------



LadyCelestiaLadyCelestia

Rated 5 / 5 stars

I love it

It just makes me feel so happy that there is a game that lets you feel like you have a band. Like for those that can't make music...like myself. But I love it and I hope you make more. :3

50/10 : )



iceman3401iceman3401

Rated 5 / 5 stars

Nice Job

GREATEST GAME ON THIS WHOLE FREAKIN SITE!! NICE ONE



LowSkillsLowSkills

Rated 5 / 5 stars

AWESOME!

Awesome game! Check my supah kewlz song!
4-3---3---3---1---1---8888880---0---0 ---9---------------------------------
-----------6-------------2---a-7-7-7-
3-1---1---1---c----------------------
----------------------9-8-8-6-6-8-8-0 ---a-------9-8-8-1---5-2-a-----------
---------------------------------


People find this review helpful!

crookedreverendcrookedreverend

Rated 5 / 5 stars

Who Doesn't Like To Make Sweet Music?

Punk-o-matic is a kick ass music game. Screw around with the controls and make a sweet song