Be a Supporter!

Credits & Info

Uploaded
Jan 26, 2004 | 3:22 AM EST
  • Weekly Users' Choice January 28, 2004
  • Daily Feature January 27, 2004

If you liked this, check these out!


Author Comments

**UPDATE**
Punkomatic 1 will be made into an iPhone/Android app once we reach 1250 likes on our Punkomatic facebook!
(remove spaces)
http://www.facebook.com/P unkoMatic

**EDIT**
PLEASE DON'T SUBMIT POM SONGS ON THE AUDIO PORTAL AS THEY ARE NOT VALID ORIGINAL COMPOSITIONS. THANK YOU FOR YOUR COMPREHENSION AND HAVE FUN WITH THE GAME! :D

The one and only Punk-o-matic :P
Thanks for the support everybody!

The offline version and the tabs can be downloaded at www.evil-dog.com

-Voices And More-
IceWolf
-Soundtrack-
My band Chucks Nation! Check us out on newgrounds http://chucksnation.newgr ounds.com/audio (remove the space from the URL)

Reviews


MasterShiftMasterShift

Rated 5 / 5 stars

Great shit

It's always awesome to make your own music and then be able to share it with your friends. =D

---79--79------79------72---3-379-5--
--72---3--9---------------------79--7 9-5--9-----1---1---2---4---1---8---1-
--1---2---4---1---8--b---------------
---1---1---2---4c-------------a------
---------1---2-3-a-5----96-3-0---2-4-
6-1---2-4-6-4---------a-5--a-----


People find this review helpful!

yellowgh0styellowgh0st

Rated 5 / 5 stars

.........Holy...Shhh.......It

That...was...amazing!...it can't get any better...or can it...if it can get better...please make more.

Great Work!



Gamewhiz88Gamewhiz88

Rated 5 / 5 stars

Hi

Look at mine it is some good shit

9-0-081--2--80---3--80-----82-
--0--9--0-0-0---5-50-----0-1-1 ---1---1---9-------------c-0-1 20--3-0--5b1---c--c---0c---0--
c--0-0-0--2---0-c---7-0---c--0 --1---c-------------a-0-01-20-
-43-8-80--8-0--8-0-820---a--8-
8-8-0---31---8-807-7-0--7-7-0-
-a-------------



Frankie-GFrankie-G

Rated 5 / 5 stars

if i could i'd rate this a 11

this game is so freakin' cool.

check this out

-------80---0---0---0----82---2---2---2---3---3---3---3---7
7787778777877786-6-6-6-9--0---0---0---0---0---0-----4---4---
4---4---2---2---2---2---8---8---8---8---a---a---c-----------
-------6---6-4-5-6---6-4-6---6-4-5-3-5-3-5-3-5-3-6---6-4-6--
-6-4-5-5-5-5-a--



UnlimitedarkUnlimitedark

Rated 5 / 5 stars

Listen to THIS :D

95-5-0---0---0---0---1---1---0---80--
-0---2---2---6-681---0---1---3---3---
0---3---8--c-b-b0---0---0---0---2---2 ---0---b2---2---4---4---4---4---0---0 ---7---7---8---8----b-a--------a---0-
--0-3-a---a---222--a---a---1---1-8-a-
------444-444-------8-a---0---a--

and...

---7---80---0---4-5-4-5--6-80---0---1 ---1---5-5-5-5-4-0---0---5-5-2---6-6-
6-89---0---0---0---a---a---7-7-7-7---
--0---0---2---2---9---9-----4---4---9 ---9-----9---b----b-----------0---0--
-1---1---666-0---0-8-a---a-444-4-7-7-
8-------8-222-222-8-2----8-9-a---