Be a Supporter!

Credits & Info

Uploaded
Jan 26, 2004 | 3:22 AM EST
  • Weekly Users' Choice January 28, 2004
  • Daily Feature January 27, 2004

Related Stuff

If you liked this, check these out!


Plenty more like this here!


Author Comments

**UPDATE**
Punkomatic 1 will be made into an iPhone/Android app once we reach 1250 likes on our Punkomatic facebook!
(remove spaces)
http://www.facebook.com/P unkoMatic

**EDIT**
PLEASE DON'T SUBMIT POM SONGS ON THE AUDIO PORTAL AS THEY ARE NOT VALID ORIGINAL COMPOSITIONS. THANK YOU FOR YOUR COMPREHENSION AND HAVE FUN WITH THE GAME! :D

The one and only Punk-o-matic :P
Thanks for the support everybody!

The offline version and the tabs can be downloaded at www.evil-dog.com

-Voices And More-
IceWolf
-Soundtrack-
My band Chucks Nation! Check us out on newgrounds http://chucksnation.newgr ounds.com/audio (remove the space from the URL)

Reviews


Frankie-GFrankie-G

Rated 5 / 5 stars June 18, 2005

if i could i'd rate this a 11

this game is so freakin' cool.

check this out

-------80---0---0---0----82---2---2---2---3---3---3---3---7
7787778777877786-6-6-6-9--0---0---0---0---0---0-----4---4---
4---4---2---2---2---2---8---8---8---8---a---a---c-----------
-------6---6-4-5-6---6-4-6---6-4-5-3-5-3-5-3-5-3-6---6-4-6--
-6-4-5-5-5-5-a--



UnlimitedarkUnlimitedark

Rated 5 / 5 stars April 30, 2008

Listen to THIS :D

95-5-0---0---0---0---1---1---0---80--
-0---2---2---6-681---0---1---3---3---
0---3---8--c-b-b0---0---0---0---2---2 ---0---b2---2---4---4---4---4---0---0 ---7---7---8---8----b-a--------a---0-
--0-3-a---a---222--a---a---1---1-8-a-
------444-444-------8-a---0---a--

and...

---7---80---0---4-5-4-5--6-80---0---1 ---1---5-5-5-5-4-0---0---5-5-2---6-6-
6-89---0---0---0---a---a---7-7-7-7---
--0---0---2---2---9---9-----4---4---9 ---9-----9---b----b-----------0---0--
-1---1---666-0---0-8-a---a-444-4-7-7-
8-------8-222-222-8-2----8-9-a---



deathbyrandomdeathbyrandom

Rated 5 / 5 stars October 9, 2009

check it

4-4-2-3---5-6-6-2---2-----0---6---3--
-889--81---1-----5---------18-84-4-70 0-9--------c---0---2---9---4---4-----
--0---4-4-4-4-c---9---9---8---2---9--
-7---1---6-6-c--------a---5-7-4-3-0--
-1---4-7-7-7-7-6-----5-6-a-------2-3-
7-4-a-------5-6-2-3-6-9-a--------



ZACK-HZACK-H

Rated 5 / 5 stars February 20, 2004

coooool

fuck man you rock. good job damn good job



GhostlyPoetGhostlyPoet

Rated 5 / 5 stars August 18, 2010

2 good rythmic demo

93---3---0---0---0---0---777777779--0 ---0---0---0---779-779-777777770---0-
--0---0---9c3-3-3-3-0---0---0---0---7 -7-7-7-c--0---0---0---0-----------7-7 -7-3-0---0---0---0---ca----a-9-8-7-8-
4-8-7-8-9-3-7-3-7-a9-8---8---8-7-8-9-
3-7-3-7-3-7-3-9-8-7-8-6-8-7-7-9-a Split personality 4-88881---1---4-9-4-8888777777773---3 ---1---1---4-0-4-9-99777777773---3---
77779-3-9------6-1---1---3-c-----6-7-
7-7-7-3-3-3-3-1---1---3-0-6-c---7-7-7 -7-3-3-3-6-7-7-6-3-6----5-5-3-1-3-1--
-a---5-5-7-7-7-8-3-3-6-3-3-1-3-1---1-
--a---7-7-7-9-3-3-3-6-7-7-6-3-9-- Schicronized Radio