Be a Supporter!

Credits & Info

Uploaded
Jan 26, 2004 | 3:22 AM EST
  • Weekly Users' Choice January 28, 2004
  • Daily Feature January 27, 2004

Related Stuff

If you liked this, check these out!


Plenty more like this here!


Author Comments

**UPDATE**
Punkomatic 1 will be made into an iPhone/Android app once we reach 1250 likes on our Punkomatic facebook!
(remove spaces)
http://www.facebook.com/P unkoMatic

**EDIT**
PLEASE DON'T SUBMIT POM SONGS ON THE AUDIO PORTAL AS THEY ARE NOT VALID ORIGINAL COMPOSITIONS. THANK YOU FOR YOUR COMPREHENSION AND HAVE FUN WITH THE GAME! :D

The one and only Punk-o-matic :P
Thanks for the support everybody!

The offline version and the tabs can be downloaded at www.evil-dog.com

-Voices And More-
IceWolf
-Soundtrack-
My band Chucks Nation! Check us out on newgrounds http://chucksnation.newgr ounds.com/audio (remove the space from the URL)

Reviews


Xcen27Xcen27

Rated 5 / 5 stars May 20, 2008

NICE!

dooooooooddd!
It's an awesome game beats that crap out of all the other music based games.


People find this review helpful!

ChaosTriggerChaosTrigger

Rated 5 / 5 stars June 15, 2004

In a word...

"Awesome"

I've created a bunch of songs on this thing. I have to say, this is my favorite game on Newgrounds.

Check this out:

----2---3---2---6-6-0---5-4---5-2---2---2---3-------2------
--------------------------4---4---2---3-3-4---0---2-----3-0-
--0---1---2-------8-8---8----------------------------------1
---5-5-2-2-1---3-4-2-2-0---0---3-3-3-3-5-5-5-5-4-4-4-6------
----------------



AphaxAphax

Rated 5 / 5 stars May 22, 2011

Chek this shit out!

---------6874-1---2---95-5--5-4-4-5-5 -5---1---4---5-1---4-2---4-5-4-----4-
4-5-3--5-----------0---1---6-2---8---
--8---9--bbbb---1--4------1---1---3-3 -0-------2---4-a------0a--0a---0--1--
--1---26-4-6-2-3-5-7-7-7-4-1---1-3-2-
1---1---3-3-0---1---5-4---7777-6-



SlowlyFallingSlowlyFalling

Rated 5 / 5 stars January 26, 2004

Oh my god...AMAZING

This has got to be the best game on NGs...I love this thing, and I don't even like punk that much! <y god!
Dood! Duuu...uuu...uude...
And 4.44 for the score?! Top game of all time headed your way!
You are a god!



KillerGrrlKillerGrrl

Rated 5 / 5 stars January 7, 2006

Highly Addictive

Can't.. stop.. playing..