Be a Supporter!

Credits & Info

Uploaded
Jan 26, 2004 | 3:22 AM EST
  • Weekly Users' Choice January 28, 2004
  • Daily Feature January 27, 2004

Related Stuff

If you liked this, check these out!


Plenty more like this here!


Author Comments

**UPDATE**
Punkomatic 1 will be made into an iPhone/Android app once we reach 1250 likes on our Punkomatic facebook!
(remove spaces)
http://www.facebook.com/P unkoMatic

**EDIT**
PLEASE DON'T SUBMIT POM SONGS ON THE AUDIO PORTAL AS THEY ARE NOT VALID ORIGINAL COMPOSITIONS. THANK YOU FOR YOUR COMPREHENSION AND HAVE FUN WITH THE GAME! :D

The one and only Punk-o-matic :P
Thanks for the support everybody!

The offline version and the tabs can be downloaded at www.evil-dog.com

-Voices And More-
IceWolf
-Soundtrack-
My band Chucks Nation! Check us out on newgrounds http://chucksnation.newgr ounds.com/audio (remove the space from the URL)

Reviews


thesithmanthesithman

Rated 5 / 5 stars April 19, 2008

sweet!

this is amzaing and also here's my short little creation!
-99999999-82---88874-4--------9------
-9---------------------------0---1---
3-0---0-----8---8------------6-7-4---
2--5--------c------------------------
-0-1---2-3-3---5-5-----a---a---------
---6-7-4-------0---5-7-a-------------
------------



gamerathome3gamerathome3

Rated 5 / 5 stars April 19, 2008

lol

hahah how is this hot of the front page lolzzzzz



Tho666Tho666

Rated 5 / 5 stars April 19, 2008

woot

kickass 9992--1---2-0---3---4-6---0-------186 6256
-----------------6-6-0-0---861---8888 0--4--9a---1---7-6-0---2---4-a---9---
a
---------------------------6-1---0---
7-a---0---a--4--b9-6-0---8-6-0---1---
5-8-8-8
---------------8-890---1---3-4-9-2-3-
0---8-1---0---8-8----


People find this review helpful!

pjxslayerpjxslayer

Rated 5 / 5 stars April 19, 2008

great game!

5/5 one of the best music games!



AdriftCadaverAdriftCadaver

Rated 5 / 5 stars April 19, 2008

Fucking Yeah Punk Rules!!!

Here Is My Fucking Song jeje.
is not so good but is my creation.
666-0---0---0---9-9-0---0---0---0---1 ---1---9---0---0---5-5-5-5-6-6-6-6-9-
--9------------4---4---4--3-3-b0---0-
--0---0---8---8---b-6-4---4---5-5-5-5 -9---9-------b----------3---5-4-4-4-4 -0-----------8-8-6-6-7-7-7-7a--9-4-4-
4-4-a---a---8-8-8-8-a------------


People find this review helpful!