Be a Supporter!

Punk-o-matic

Score:
rated 4.30 / 5 stars
Views:
7,928,403 Views
Share Links:
Genre:
Gadgets - Musical
Tags:
None

Credits & Info

Uploaded
Jan 26, 2004 | 3:22 AM EST
  • Frontpaged April 14, 2008
  • Weekly Users' Choice January 28, 2004
  • Daily Feature January 27, 2004

If you liked this, check these out!


Author Comments

**UPDATE**
Punkomatic 1 will be made into an iPhone/Android app once we reach 1250 likes on our Punkomatic facebook!
(remove spaces)
http://www.facebook.com/P unkoMatic

**EDIT**
PLEASE DON'T SUBMIT POM SONGS ON THE AUDIO PORTAL AS THEY ARE NOT VALID ORIGINAL COMPOSITIONS. THANK YOU FOR YOUR COMPREHENSION AND HAVE FUN WITH THE GAME! :D

The one and only Punk-o-matic :P
Thanks for the support everybody!

The offline version and the tabs can be downloaded at www.evil-dog.com

-Voices And More-
IceWolf
-Soundtrack-
My band Chucks Nation! Check us out on newgrounds http://chucksnation.newgr ounds.com/audio (remove the space from the URL)

Reviews


howamisupposedtoknowhowamisupposedtoknow

Rated 5 / 5 stars

Never get tired of this game ^^

On a scale of 10 to epic... epic :P can't wait for the sequel...
Here's my little composition.
--3---3--86-4-6-2---2---2--82---2-6-2 ---2-6-3-4-3-4-4-2---2---3---3-7779--
------------c2---2---5-5-6-1---0---0-
8-0---0---0---0---3-0-3-0---1---1---8 ---8-222c-------------a--------------
-a-a91---1-2-1---1-3-1---1-345---5-7-
6-8---8---2-2-2-3-4a-------------


People find this review helpful!

EvilLinkin666EvilLinkin666

Rated 3.5 / 5 stars

Nice

Nice rhythm game



PenutFlashPenutFlash

Rated 5 / 5 stars

nice!

Hey lerroux your's' is great!
check out mine!
--0------------------------0---------
-----------------2---2---2-------8---
2----0----1--1---3-3-5-5-0---0---6---
-1---1---1----9--------------2---2-2-
1---3-10---4-1---0------0-----------0 ---0---6-------------0---a---a-------


People find this review helpful!

EvilAngel23EvilAngel23

Rated 4.5 / 5 stars

Amazing

This game is amazing. When I'm not playing, I'm thinking of what I can change in the song I already have. Hopefully there will be bass tracks in the sequel. And since every one else is posting there creations, I may as well follow suit. It's simple, but I like it.

----1---2---2---2---2-6-0---0---77777 7772---2---2---2-6-2---2---0-2---2---
2---2-6-9--0---0---1---1---1---1---5-
5-5-5-2---2---1---1---1---1---5-5-5-5 -3-1---1---1-1-----c--------9-6---6--
-7---6---4-4a4-4a1---1---6---6---7---
6---5-5a5-5a2-6---6---7---666-a--



LerrouxLerroux

Rated 5 / 5 stars

Rok On!!!

Wohoo!! Ye!! I love this game! I've been composing my own song for like 30 minutes! LOL! Well i would like to share wat i composed & the title of it is THE RISING.. Jus press load and copy then paste the codes shown below at the small box below the slots...

90---0---1-----1---2---6-0---0---9---
6-3---1---0---
9----0-----0---0---1---5----------
c--0---3-------1---2-----4---4---c---
--------------
0----0-----7-7-5-5-1---b----------a--
--1-----2-3-0-------
4-7---7---a-----------------3---31-1-
--0---7-7-1---a----------

Hope u like it! Peace out! \m/


People find this review helpful!