Be a Supporter!

Credits & Info

Uploaded
Jan 26, 2004 | 3:22 AM EST
  • Weekly Users' Choice January 28, 2004
  • Daily Feature January 27, 2004

If you liked this, check these out!


Author Comments

**UPDATE**
Punkomatic 1 will be made into an iPhone/Android app once we reach 1250 likes on our Punkomatic facebook!
(remove spaces)
http://www.facebook.com/P unkoMatic

**EDIT**
PLEASE DON'T SUBMIT POM SONGS ON THE AUDIO PORTAL AS THEY ARE NOT VALID ORIGINAL COMPOSITIONS. THANK YOU FOR YOUR COMPREHENSION AND HAVE FUN WITH THE GAME! :D

The one and only Punk-o-matic :P
Thanks for the support everybody!

The offline version and the tabs can be downloaded at www.evil-dog.com

-Voices And More-
IceWolf
-Soundtrack-
My band Chucks Nation! Check us out on newgrounds http://chucksnation.newgr ounds.com/audio (remove the space from the URL)

Reviews


gunmaster4evergunmaster4ever

Rated 5 / 5 stars

VERY nice!

Nice!!
here is my song:
--6-0---1---1---1---1---0---0---0--3-
------3---1---1---9---------------0--
-1---1---9---6-0---0---0---0---2---3-
3-----33---6-3-3-2---3-3-3-3-----0---
----0-------1---0---c-a-----------1--
-1-------1---6-6----8-----------1---1 ---7-7-----0-------0-------1---a-

10/10 rating :)



wilbmewilbme

Rated 4.5 / 5 stars

loved it.

2---5-5-4-6-0---0-1---75676-0---0---8 89---2---9---------------------------
-----------2---0---4---1---0-3-5-a---
5-4---0---6-a---c---b----------------
----------------------9-0---7-0---5-1 ---0---2-3-6-1---0---9-a---2-2-a-----
---------------------------------



imdcrazy1imdcrazy1

Rated 5 / 5 stars

AWESOME!!!!!

Nice work! I had played it before but neva comented... i wish there was a list which track does wat because i donno!and its hard to make good music if u donno.still awesome game!i wish ul make some more!

"this is blovin my fuckin mined..."



AdamJCAdamJC

Rated 5 / 5 stars

Great

Brilliant game

9-0-3--5-40-4-0--1--0-9-970--99-9----
-------------------------------------
-----------c-1-121-3--4----63c-4---08 ---03--------------------------------
----------------------a--11050-6--208 -0a8-0-5-6-1--9-6--------------------
---------------------------------

hope u like my song



holdenman454holdenman454

Rated 4 / 5 stars

nice

very kool game nice