Be a Supporter!

Punk-o-matic

Score:
rated 4.30 / 5 stars
Views:
7,928,560 Views
Share Links:
Genre:
Gadgets - Musical
Tags:
None

Credits & Info

Uploaded
Jan 26, 2004 | 3:22 AM EST
  • Frontpaged April 14, 2008
  • Weekly Users' Choice January 28, 2004
  • Daily Feature January 27, 2004

If you liked this, check these out!


Author Comments

**UPDATE**
Punkomatic 1 will be made into an iPhone/Android app once we reach 1250 likes on our Punkomatic facebook!
(remove spaces)
http://www.facebook.com/P unkoMatic

**EDIT**
PLEASE DON'T SUBMIT POM SONGS ON THE AUDIO PORTAL AS THEY ARE NOT VALID ORIGINAL COMPOSITIONS. THANK YOU FOR YOUR COMPREHENSION AND HAVE FUN WITH THE GAME! :D

The one and only Punk-o-matic :P
Thanks for the support everybody!

The offline version and the tabs can be downloaded at www.evil-dog.com

-Voices And More-
IceWolf
-Soundtrack-
My band Chucks Nation! Check us out on newgrounds http://chucksnation.newgr ounds.com/audio (remove the space from the URL)

Reviews


geliriageliria

Rated 5 / 5 stars

best game!

this is by far the best game on newground! i never get tired of it and its so awesome! you should make another one with even more music to choose from!



flash-dudeflash-dude

Rated 5 / 5 stars

Yeeees!

Best game ever! Heres mine, i think its pretty good:

001-1-1-1-4---1---1-----------004-1--
-1-4---------------------------------
-------------4---5-5-5---0---0---4-4-
4---8---0---0-6-b--------------------
----------------------1-9-927-7-7-6-4 -4-4-4-------------4-4-4-4-----------
---------------------------------



koolest666koolest666

Rated 5 / 5 stars

awesome

here's mine -----------4---84386501279----1---04-
24--------3755-----------------------
--641554-88c---200-12----------------
----4---3-6-----49--------62834-5-7--
-------------2365465--a---20031201---
---------------2-3-----1---5a--------
-------------666-855a---3124316--



duhidiotduhidiot

Rated 5 / 5 stars

Woo-hoo!!

that was awesome!!!!!! heres my creation!!!! 81-------------------3---------------
--------------3-0---0---0-------1---1 ---3-3-a---b0---------------1---1---c -------------------------------------
--0---1---1---2-2-a--------a---0---3-
4-1---1---a-------------------------


People find this review helpful!

Syc45Syc45

Rated 5 / 5 stars

Amazing

Seriously, I love this game to death. Here's something I made.

9---90---1---2---2---5-2---554-1-4-1-
--4---------------882---2---2-----4-2 ---2---9---c---c0---1---2---1---3-2--
-9-0---1---7-9---9---8---8-----2---8-
--8----0--8---8---c---a0---0---1---2-
2-2-2-3-4-4-7-6-3-6-3-8-8-8-8-8-9-8-8 -a---4-4-2-2-2-2-0---2-2-2-2-a---