Be a Supporter!

Punk-o-matic

Score:
rated 4.30 / 5 stars
Views:
7,923,425 Views
Share Links:
Genre:
Gadgets - Musical
Tags:
None

Credits & Info

Uploaded
Jan 26, 2004 | 3:22 AM EST
  • Frontpaged April 14, 2008
  • Weekly Users' Choice January 28, 2004
  • Daily Feature January 27, 2004

If you liked this, check these out!


Author Comments

**UPDATE**
Punkomatic 1 will be made into an iPhone/Android app once we reach 1250 likes on our Punkomatic facebook!
(remove spaces)
http://www.facebook.com/P unkoMatic

**EDIT**
PLEASE DON'T SUBMIT POM SONGS ON THE AUDIO PORTAL AS THEY ARE NOT VALID ORIGINAL COMPOSITIONS. THANK YOU FOR YOUR COMPREHENSION AND HAVE FUN WITH THE GAME! :D

The one and only Punk-o-matic :P
Thanks for the support everybody!

The offline version and the tabs can be downloaded at www.evil-dog.com

-Voices And More-
IceWolf
-Soundtrack-
My band Chucks Nation! Check us out on newgrounds http://chucksnation.newgr ounds.com/audio (remove the space from the URL)

Reviews


240sx8191240sx8191

Rated 5 / 5 stars

my song

could use some work
9---1---2---0---1---2---0---2---6-0--
4-0------0----0--2--------0------0---
-0-0---8---c----0---2---1---3-2------
-----------1---0---1----7-2-----0---1 -----6--2---120----5--a---0--------1-
--------3-1---2-4-1---0-----6--0----7 ------4-6----1-----1a----1-----4-


People find this review helpful!

flamejoseflamejose

Rated 5 / 5 stars

cool

check this out
--------------1---0---a---0---0------
-1----a---


People find this review helpful!

cboy10009cboy10009

Rated 3 / 5 stars

awsome

a111-00003201000---------------------
-------------------------------------
-----------load this one its pretty cool



wafflemanruleswafflemanrules

Rated 5 / 5 stars

frikin sweet

this game is fikin sweet



MurdochSwitchBladeMurdochSwitchBlade

Rated 5 / 5 stars

frickin sick.

i always saw this game for like, ever, but i never olayed. i assumed it was gay for some reason... but anyways its great.
i think mine was pretty good.
90--77771-1-9-3-6-77771---4-4-9------
-------------------------------------
-----------0---1---5-5-8---
--1---5-a---c------------------------
--------------------------------0---2 -1---7--9-38-2-1---6-a---------
-------------------------------------
------------