Be a Supporter!

Punk-o-matic

Score:
rated 4.30 / 5 stars
Views:
7,911,353 Views
Share Links:
Genre:
Gadgets - Musical
Tags:
None

Credits & Info

Uploaded
Jan 26, 2004 | 3:22 AM EST
  • Frontpaged April 14, 2008
  • Weekly Users' Choice January 28, 2004
  • Daily Feature January 27, 2004

If you liked this, check these out!


Author Comments

**UPDATE**
Punkomatic 1 will be made into an iPhone/Android app once we reach 1250 likes on our Punkomatic facebook!
(remove spaces)
http://www.facebook.com/P unkoMatic

**EDIT**
PLEASE DON'T SUBMIT POM SONGS ON THE AUDIO PORTAL AS THEY ARE NOT VALID ORIGINAL COMPOSITIONS. THANK YOU FOR YOUR COMPREHENSION AND HAVE FUN WITH THE GAME! :D

The one and only Punk-o-matic :P
Thanks for the support everybody!

The offline version and the tabs can be downloaded at www.evil-dog.com

-Voices And More-
IceWolf
-Soundtrack-
My band Chucks Nation! Check us out on newgrounds http://chucksnation.newgr ounds.com/audio (remove the space from the URL)

Reviews


StarlightsaberStarlightsaber

Rated 5 / 5 stars

Very Cool!

Very Cool Game! Love it! Nice Soundtracks too. Good Job!



LewtonLewton

Rated 3.5 / 5 stars

Not bad!

I was impresssed but this game shows how simple punk music is.



Darkcloud417Darkcloud417

Rated 5 / 5 stars

Sweet game

This is my favorite song that i made:
----1---20---2----4-4-555-----



mishicamishica

Rated 5 / 5 stars

Try this one

----777899572---88883---3---3---88888 85-2---49----------------------------
-----------------3-3-3-2---0---5-5-5-
5-5-5-5-5-5-2---5--------------------
----------------------7-7-7-7-7-5-7-7 -a---9-4-4-2-4-2-7-7-7-2-2-2-a-------
---------------------------------
i neaded 5 min of a hard work for this one :)



240sx8191240sx8191

Rated 5 / 5 stars

my song

could use some work
9---1---2---0---1---2---0---2---6-0--
4-0------0----0--2--------0------0---
-0-0---8---c----0---2---1---3-2------
-----------1---0---1----7-2-----0---1 -----6--2---120----5--a---0--------1-
--------3-1---2-4-1---0-----6--0----7 ------4-6----1-----1a----1-----4-


People find this review helpful!