Be a Supporter!

Credits & Info

Uploaded
Jan 26, 2004 | 3:22 AM EST
  • Weekly Users' Choice January 28, 2004
  • Daily Feature January 27, 2004

Related Stuff

If you liked this, check these out!


Plenty more like this here!


Author Comments

**UPDATE**
Punkomatic 1 will be made into an iPhone/Android app once we reach 1250 likes on our Punkomatic facebook!
(remove spaces)
http://www.facebook.com/P unkoMatic

**EDIT**
PLEASE DON'T SUBMIT POM SONGS ON THE AUDIO PORTAL AS THEY ARE NOT VALID ORIGINAL COMPOSITIONS. THANK YOU FOR YOUR COMPREHENSION AND HAVE FUN WITH THE GAME! :D

The one and only Punk-o-matic :P
Thanks for the support everybody!

The offline version and the tabs can be downloaded at www.evil-dog.com

-Voices And More-
IceWolf
-Soundtrack-
My band Chucks Nation! Check us out on newgrounds http://chucksnation.newgr ounds.com/audio (remove the space from the URL)

Reviews


xxemok1dxxxxemok1dxx

Rated 5 / 5 stars April 21, 2008

i rated it 10 for the sound of it

I like it a lot. so use this or not 9--99888888888888888-0-------0-------
0---0-----------------0---0---0---9--
-----------c--cc---a-------4----0----
---8-------0---0-------6-----4-------
-3------c-------------a--aa-------1--
----3-0---a-------0---7-7-7-7-a-----2 -3------1-----1----a-------------



pukaaapukaaa

Rated 4 / 5 stars April 21, 2008

it's a prety cool game.try this on for size

9-9---0---0--9---0-------0---0---0---
0---0---0---9------------------------
-----------c-c--9---9---c---0---0---0 ---0---0---0---0---0---c--b----------
----------------------a-8-8-6-6------
8-------------0---1---1---1---0---a--
---------------------------------



NylanNylan

Rated 5 / 5 stars April 21, 2008

Great game

I'll admit it took me a while to get into it, however it's an excellent game. Great music, great graphics. 10/10

And even though none of you care, here's a song I made.. a (in my opinion) bad one.
----------------2--------------------
-----2---0---99990---1---6-0---0---6-
6-3---6-9--3-3-----2---a---2---------
--a-------------2---0---3-3-c---c----
-5-5-5-5-1---a---bbc--7-7-1---1------
-7-7-0---1-------7-7-7-8-9-a---0---77 77a---a---9-7-7-7-7-0---a---9-a--


People find this review helpful!

06jb806jb8

Rated 4.5 / 5 stars April 21, 2008

DUUUUDE!

FUNNY,MUSICAL AND REALY KLLL



mattis171mattis171

Rated 5 / 5 stars April 21, 2008

Very nice

Very nice!!
here is my song:
9---9-6-2---2---4-6-4-0---9-6-3---1--
90---9-6-1
---9-6-9-6-2-----081---0--92---9-2---
-c-------1---2-------8-1-------2---1-
----
------1-----------1-------4-------1--
---1---c9-2-1-----------
1---------7-6---------1---4-6-----1--
-0----
---9-5-----1-------2------

10/10!!