Be a Supporter!

Credits & Info

Uploaded
Jan 26, 2004 | 3:22 AM EST
  • Weekly Users' Choice January 28, 2004
  • Daily Feature January 27, 2004

If you liked this, check these out!


Author Comments

**UPDATE**
Punkomatic 1 will be made into an iPhone/Android app once we reach 1250 likes on our Punkomatic facebook!
(remove spaces)
http://www.facebook.com/P unkoMatic

**EDIT**
PLEASE DON'T SUBMIT POM SONGS ON THE AUDIO PORTAL AS THEY ARE NOT VALID ORIGINAL COMPOSITIONS. THANK YOU FOR YOUR COMPREHENSION AND HAVE FUN WITH THE GAME! :D

The one and only Punk-o-matic :P
Thanks for the support everybody!

The offline version and the tabs can be downloaded at www.evil-dog.com

-Voices And More-
IceWolf
-Soundtrack-
My band Chucks Nation! Check us out on newgrounds http://chucksnation.newgr ounds.com/audio (remove the space from the URL)

Reviews


ghostman1ghostman1

Rated 5 / 5 stars

wow

wow this is great can spend hours on it well done



ssRaz91ssRaz91

Rated 5 / 5 stars

Awesome

i spent alot of time on dis thing heres all my songs
song 1
9-0--3--549--0--53--1--4556631-3-442--79--1--0--43--1--9--6
89------------------------c-1--2--4--377-5-7-9--c-45-5-1--9-
-2--0--c-8--9---4---1--7-8---b---------------------a-2-1--1-
5-1-2-5-a---1---0---2-2-1---50--2-1--4-6-8-7-a--3-1---------
----------------

song 2
0---2-4-6-6-1---4-4-3--6-9-----------------------6-6-89----
--------------------------6-1---5-0---2---8---b-------------
-0---3-4---5-7-1---6-7-b---------------------------9-0---4-1
---3-3-7-a-------7-7-4-a----------------a---9-a-------------
----------------

song 3
6-6-70---1---2---6-871---3---2--780---2---1---0---9-81-9---
--------------------------8---4---5-60---2---73-5-7-c-4---7-
4---0---8---a---a---c------------------------------2-2-4-4-1
---6-8-a---2-1---3-2-4-7-7-2-8-7-1---0---5-4-a--------------
----------------



imaJackassimaJackass

Rated 5 / 5 stars

awesome

I love this game,because there are many posibilities for music. I can't wait for the seqeul.



MakshakMakshak

Rated 4 / 5 stars

Good Game try it out

Check out what i did, i was with my friend and we pressed random numbers but its pretty good!!! CHeck it out hommies!!!!!

9--5-----2------0---0------00--52----01--0----0-----00-2---
--2---0----0----001-----9-c--5-8-----2----1----0--0--0-0----
1-20--00-------3-1--0---01-----0-1-----0---00----c-a--5-8--0
110----0----0-----1-0---01--0----6-0----10---1------1---0---
--10----0-0---a-



whatsAaliaswhatsAalias

Rated 4.5 / 5 stars

I like this... alot!

Wow, u made it so basically any random stuff sounds good. It makes me feal specail. Kepp it up, add more choices next time. As wall as sounding good , this looked good, the facial changes were a nice detail. good jobbbb... duuuudddddddd... e...