Be a Supporter!

Credits & Info

Uploaded
Jan 26, 2004 | 3:22 AM EST
  • Weekly Users' Choice January 28, 2004
  • Daily Feature January 27, 2004

If you liked this, check these out!


Author Comments

**UPDATE**
Punkomatic 1 will be made into an iPhone/Android app once we reach 1250 likes on our Punkomatic facebook!
(remove spaces)
http://www.facebook.com/P unkoMatic

**EDIT**
PLEASE DON'T SUBMIT POM SONGS ON THE AUDIO PORTAL AS THEY ARE NOT VALID ORIGINAL COMPOSITIONS. THANK YOU FOR YOUR COMPREHENSION AND HAVE FUN WITH THE GAME! :D

The one and only Punk-o-matic :P
Thanks for the support everybody!

The offline version and the tabs can be downloaded at www.evil-dog.com

-Voices And More-
IceWolf
-Soundtrack-
My band Chucks Nation! Check us out on newgrounds http://chucksnation.newgr ounds.com/audio (remove the space from the URL)

Reviews


ninja1357ninja1357

Rated 5 / 5 stars

aws0me!!1

this is the best thing ever!!! short song to show it off!!!0-2---5-75-3-0--9------------------------------------
--------------------------------0--2-3-5-7-40---c-----------
----------------------------------------------------------1-
-3-5-4-6-7-8-0----------------------------------------------
----------------------



djt820djt820

Rated 5 / 5 stars

OMG

WHEEEER amazing bone shattering awesomeness i couldnt make myself more clearer
this is my best song ever, maybe my 2nd best idk just LISTEN!!!!
96-9---9---99888-------9-------9-6-071---1---0---3---0---99
88880---9-89--------------c--c4--c---c996-99-9---999-9---9--
-3-53-c3-5-0-------0---cc996-0---c-----------------a--a---a8
8-aaa9--------------------------000a1-------1---aaaa9-1---a-
----------------



Jawa-CrossingJawa-Crossing

Rated 5 / 5 stars

Very nice gadget

My song kinda sucks but heres the thingy for it

0---1---4----0---0------0---9------------------------------
--------------------------------------0---1-bbbb--0---1---c-
---------------------------------------------------a---3-4-5
-6--3-4-5-6-1--1---a----------------------------------------
----------------



LuvSallyLuvSally

Rated 4.5 / 5 stars

Good game to raise music making skills...

Could be better, but still, all 5 Rs



cheesemastafungcheesemastafung

Rated 5 / 5 stars

rock onizzle.

really nice interesting piece here.