Be a Supporter!

Credits & Info

Uploaded
Jan 26, 2004 | 3:22 AM EST
  • Weekly Users' Choice January 28, 2004
  • Daily Feature January 27, 2004

If you liked this, check these out!


Author Comments

**UPDATE**
Punkomatic 1 will be made into an iPhone/Android app once we reach 1250 likes on our Punkomatic facebook!
(remove spaces)
http://www.facebook.com/P unkoMatic

**EDIT**
PLEASE DON'T SUBMIT POM SONGS ON THE AUDIO PORTAL AS THEY ARE NOT VALID ORIGINAL COMPOSITIONS. THANK YOU FOR YOUR COMPREHENSION AND HAVE FUN WITH THE GAME! :D

The one and only Punk-o-matic :P
Thanks for the support everybody!

The offline version and the tabs can be downloaded at www.evil-dog.com

-Voices And More-
IceWolf
-Soundtrack-
My band Chucks Nation! Check us out on newgrounds http://chucksnation.newgr ounds.com/audio (remove the space from the URL)

Reviews


DevilslambskinDevilslambskin

Rated 4.5 / 5 stars

Good riffs, nice drums, good for inspiration

I thought this punk-o-matic was a lot of fun to mess around with. The time it took to create something to sound decent took up an hour of my time, but thought it was cool once it was finished. The character's facial expressions were funny from the changes in the song from palm muting riffs to the loud heavy riffs. Being a guitar player myself I thought that this would be fun for any musician to experiment and show to your friends. Maybe you will create more songs now playing with this one! Metal-o-matic or jazz-o-matic coming up soon? Time will tell


People find this review helpful!

Omega100Omega100

Rated 4 / 5 stars

Pretty fun.

Good game. Check out my song.
----6---0-------71---1---0---9-----------83---9------------
1---7-------2------0-----9------3-0---0---b-9-----4--------4
---1----4----0-----------4----0----3--3-9-----2----0-----4--
---1---3-----4----------a---1----a----0---1---0---1--------2
-----a---3------



NeonFlame126NeonFlame126

Rated 5 / 5 stars

Great Stuff

9--5-4---7-1-6--9-0-5--------------------------------------
--------------------------c--c---b-a-3---860c---------------
---------------------------------------------------a--7--9--
8-2--3-0a-001-----------------------------------------------
----------------

well, there's my song all of it. I think this game was awesome but long.



bizamanbizaman

Rated 5 / 5 stars

dude!!!

great stuff man. loved it. listen to this one guyz
--6-0---1---1---1-1-1--73---3--85-5-5-5581---1--73---5-582-
--22889-------------------1---1---4---4---4---4---7-7-7-7-8-
--8----4---4---3-3-3-3-4---4---c-------------------a---a---4
-4-4-4-4-4-4-4-7-5-7-5-7-7-7-8--4-4-4-4-7-5-7-5-4-4-4-4-a---
----------------



ninja1357ninja1357

Rated 5 / 5 stars

aws0me!!1

this is the best thing ever!!! short song to show it off!!!0-2---5-75-3-0--9------------------------------------
--------------------------------0--2-3-5-7-40---c-----------
----------------------------------------------------------1-
-3-5-4-6-7-8-0----------------------------------------------
----------------------