Be a Supporter!

Credits & Info

Uploaded
Jan 26, 2004 | 3:22 AM EST
  • Weekly Users' Choice January 28, 2004
  • Daily Feature January 27, 2004

If you liked this, check these out!


Author Comments

**UPDATE**
Punkomatic 1 will be made into an iPhone/Android app once we reach 1250 likes on our Punkomatic facebook!
(remove spaces)
http://www.facebook.com/P unkoMatic

**EDIT**
PLEASE DON'T SUBMIT POM SONGS ON THE AUDIO PORTAL AS THEY ARE NOT VALID ORIGINAL COMPOSITIONS. THANK YOU FOR YOUR COMPREHENSION AND HAVE FUN WITH THE GAME! :D

The one and only Punk-o-matic :P
Thanks for the support everybody!

The offline version and the tabs can be downloaded at www.evil-dog.com

-Voices And More-
IceWolf
-Soundtrack-
My band Chucks Nation! Check us out on newgrounds http://chucksnation.newgr ounds.com/audio (remove the space from the URL)

Reviews


NIKKIxCORENIKKIxCORE

Rated 5 / 5 stars

Best flash game ever.

This is by far my favorite.
Check out what I put together.
88770---0---3---3---3---0---0--888883---3-----2---2---2---5
-5-51--1---1---3---3---8--c-6-0---0---1---1---1---1-------8-
--8---8-----80--80--80--80--0---4---4---8---a---b--a---7-7-7
-7-2---2---2---2-----------3-3-3-3-2-7-6-7-6-7-6-6-6-a---a--
-2---2-------6--



MasemMasem

Rated 5 / 5 stars

Awesome!

This has to be my favorite flash game

9---1---1-------1-------1--------1---1-------1---9---------
--------------------------c---0---0---5-5-----7-7-0----0---0
-------1---0---c-----------------------------------a---1---1
-------0---4-4-1---8-8-88-8-5-5-----1---a-------------------
----------------



mafia200100mafia200100

Rated 4.5 / 5 stars

look at mine!

2---5-1---0---3---76-882---8---2---6---84-----1---



johnny-ninjajohnny-ninja

Rated 5 / 5 stars

DUDER

0---1-----0---1---3---80---0---9--8------------------------
--------------------------0---3-0---0---1---5-3-9----0---c--
---------------------------------------------------0---5-4--
-0---1---5-5-6----0---a-------------------------------------
----------------



JamseywamesJamseywames

Rated 4.5 / 5 stars

DOOOOOOOOOD!

It was super cool here's my song:
0---1----1------5-2---5---1-----2-1----2---2-----0---11-000
-----0----2---1----22----1---3-0---04---4-3-2---a------2----
-1---1-------1---------5--0-----02---3--12---2-------2-1----
1-------61------1-----1---3---1---0-------0----------0------
0-----20----02--