Be a Supporter!

Credits & Info

Uploaded
Jan 26, 2004 | 3:22 AM EST
  • Weekly Users' Choice January 28, 2004
  • Daily Feature January 27, 2004

Related Stuff

If you liked this, check these out!


Plenty more like this here!


Author Comments

**UPDATE**
Punkomatic 1 will be made into an iPhone/Android app once we reach 1250 likes on our Punkomatic facebook!
(remove spaces)
http://www.facebook.com/P unkoMatic

**EDIT**
PLEASE DON'T SUBMIT POM SONGS ON THE AUDIO PORTAL AS THEY ARE NOT VALID ORIGINAL COMPOSITIONS. THANK YOU FOR YOUR COMPREHENSION AND HAVE FUN WITH THE GAME! :D

The one and only Punk-o-matic :P
Thanks for the support everybody!

The offline version and the tabs can be downloaded at www.evil-dog.com

-Voices And More-
IceWolf
-Soundtrack-
My band Chucks Nation! Check us out on newgrounds http://chucksnation.newgr ounds.com/audio (remove the space from the URL)

Reviews


johnny-ninjajohnny-ninja

Rated 5 / 5 stars May 30, 2006

DUDER

0---1-----0---1---3---80---0---9--8------------------------
--------------------------0---3-0---0---1---5-3-9----0---c--
---------------------------------------------------0---5-4--
-0---1---5-5-6----0---a-------------------------------------
----------------



JamseywamesJamseywames

Rated 4.5 / 5 stars May 30, 2006

DOOOOOOOOOD!

It was super cool here's my song:
0---1----1------5-2---5---1-----2-1----2---2-----0---11-000
-----0----2---1----22----1---3-0---04---4-3-2---a------2----
-1---1-------1---------5--0-----02---3--12---2-------2-1----
1-------61------1-----1---3---1---0-------0----------0------
0-----20----02--



kooldude1kooldude1

Rated 5 / 5 stars May 30, 2006

fucking nice!

DOOOOOOOOOOOOOOD! lol so funny and fucking awesome doooooooooood!



trinoplyfromWoWtrinoplyfromWoW

Rated 5 / 5 stars May 30, 2006

niiice

this is the best gadget EVER


People find this review helpful!

SMuRF90SMuRF90

Rated 5 / 5 stars May 30, 2006

OMG DOOOOOOOOOOOOOOOOOOOOOD

This game is fricken amazing im utterly speachless, its just that dam good. and NoFx rocks my socks. Heres my song 4-0-9-5-2---2---82---2---96-82---2---12---889---3---3---3--
-9---87889-82---2--8874-9-1---c---b4---4---1---1---b--------
1-1-2---c-c---0---3-3-3-3-5-5-5-0---3-3-b--------b-87-6--1--
---3--------4-4-1---87-a-----------7-6-87-6-47-6------------
-4---4---87-6---