Be a Supporter!

Credits & Info

Uploaded
Jan 26, 2004 | 3:22 AM EST
  • Weekly Users' Choice January 28, 2004
  • Daily Feature January 27, 2004

If you liked this, check these out!


Author Comments

**UPDATE**
Punkomatic 1 will be made into an iPhone/Android app once we reach 1250 likes on our Punkomatic facebook!
(remove spaces)
http://www.facebook.com/P unkoMatic

**EDIT**
PLEASE DON'T SUBMIT POM SONGS ON THE AUDIO PORTAL AS THEY ARE NOT VALID ORIGINAL COMPOSITIONS. THANK YOU FOR YOUR COMPREHENSION AND HAVE FUN WITH THE GAME! :D

The one and only Punk-o-matic :P
Thanks for the support everybody!

The offline version and the tabs can be downloaded at www.evil-dog.com

-Voices And More-
IceWolf
-Soundtrack-
My band Chucks Nation! Check us out on newgrounds http://chucksnation.newgr ounds.com/audio (remove the space from the URL)

Reviews


Mr-YouMr-You

Rated 5 / 5 stars

woo!

wow thats great my songs might not be but they are

Song1:
9---2---2---1---0--2---1-1--9---1--2---9---0---1---9-------
---------------------------0--0---2---31--0--2---1-1---0--1-
-2---4---0---1---c---------------------------------------a--
-4-3-a-0--1---1-3333-a-1--222-a---0---1---a-----------------
----------------

Song2:
3a---0--0---0---7-7--------0---4----45-5---9-



FrekydelicFrekydelic

Rated 5 / 5 stars

GREAT!

Pretty Crappy, my song is. But look, its by me :P
9-----------5-------------0---9---------0-------------2----
-5-5--2---9----2----------c---1-------5-----4---4-------c---
-1---1----7-7-----7---0---2----2---3-3--8----5----ba-------0
---5-0-------0-------a-----0---1-------1---1---1--------2-2-
3-3--a------a---

I call it Frozen Strings. :)



animegirl411animegirl411

Rated 5 / 5 stars

check it out.

9-----------0-----0-------0-------2-----0-----0---0--------
-----0---0---------0---9--c-------0---0-----0---1---0---0---
0-----4-----0---0---1-----4---0-----0---9---0---c--a---1---1
---1---6---------1---6-2-----7-----9-0---0-------8-4-4-----8
-0-------0---a--


People find this review helpful!

ironmoogleironmoogle

Rated 5 / 5 stars

>=)

7777777777777777777792---2---2-------82----0---0---2---2---
2-----2---------9-9-9-9-------0---0---0---0----1---1---1---1
----1--6---------1---1---1-----1---------bbbbbbc-----------1
---1---1--------3-3-3-3------3-3--4-6-4-6-3-3-3-3-3-3-3-3---
6-7-7-4-4-4-a---



Birdhousefreak94Birdhousefreak94

Rated 5 / 5 stars

This game is FRICKEN' SWEET!!!!!!!!!!

I love this game. I am a fan of punk rock music, and I enjoyed making my own punk rock music. I hope you come out with a second one!!!