Be a Supporter!

Punk-o-matic

Score:
rated 4.30 / 5 stars
Views:
7,933,671 Views
Share Links:
Genre:
Gadgets - Musical
Tags:
None

Credits & Info

Uploaded
Jan 26, 2004 | 3:22 AM EST
  • Frontpaged April 14, 2008
  • Weekly Users' Choice January 28, 2004
  • Daily Feature January 27, 2004

If you liked this, check these out!


Author Comments

**UPDATE**
Punkomatic 1 will be made into an iPhone/Android app once we reach 1250 likes on our Punkomatic facebook!
(remove spaces)
http://www.facebook.com/P unkoMatic

**EDIT**
PLEASE DON'T SUBMIT POM SONGS ON THE AUDIO PORTAL AS THEY ARE NOT VALID ORIGINAL COMPOSITIONS. THANK YOU FOR YOUR COMPREHENSION AND HAVE FUN WITH THE GAME! :D

The one and only Punk-o-matic :P
Thanks for the support everybody!

The offline version and the tabs can be downloaded at www.evil-dog.com

-Voices And More-
IceWolf
-Soundtrack-
My band Chucks Nation! Check us out on newgrounds http://chucksnation.newgr ounds.com/audio (remove the space from the URL)

Reviews


smile-empty-soul69smile-empty-soul69

Rated 5 / 5 stars

Gr8

Wot made u think of this idea...well it sounds original and looks great.



GardocGardoc

Rated 5 / 5 stars

I love it

I love the abilty to make music you shoud read the extras including the credits



Vex7117Vex7117

Rated 5 / 5 stars

nice

this song isnt great but if you get the chance try out
2------54-1----0-9-----3---65--3-3---9--9--9--8-4--------2-
------6--------------------1-2------1--6-0-c-20-84-534------
-------5-5---6-1-----3-----0-----------------------01--5-3--
-1-8--0-9-----------5-02----6-6-------6-1--0-----0------6---
----------------


People find this review helpful!

Bobo-the-evil-clownBobo-the-evil-clown

Rated 5 / 5 stars

Awsome game!!!!!!

------------7-7-c---c---c---01---3-----0---0-1----1--------
----------------------------------------------1---1---1---1-
--1--0-3-3---03----1---3------------------------------------
---

it's good, try it!



Ravens-MasterRavens-Master

Rated 5 / 5 stars

Nice

Dude this stuff is blowing my mind!! Well done to the last guy that music was good now hear mine and let me know what you think.
------2---2---2---3---3---1---1---1---1---0-----------2---2
---8888777770---9-----------0---0---0---0---1---2---2---2---
3-5-4---9---1---0---0---1---9---6-4---c---------------------
-1---5-4-2-4-5-6-7-7-8-a---------------------1---2-4-6-7-9-1
---a------------