Be a Supporter!

Credits & Info

Uploaded
Jan 26, 2004 | 3:22 AM EST
  • Weekly Users' Choice January 28, 2004
  • Daily Feature January 27, 2004

If you liked this, check these out!


Author Comments

**UPDATE**
Punkomatic 1 will be made into an iPhone/Android app once we reach 1250 likes on our Punkomatic facebook!
(remove spaces)
http://www.facebook.com/P unkoMatic

**EDIT**
PLEASE DON'T SUBMIT POM SONGS ON THE AUDIO PORTAL AS THEY ARE NOT VALID ORIGINAL COMPOSITIONS. THANK YOU FOR YOUR COMPREHENSION AND HAVE FUN WITH THE GAME! :D

The one and only Punk-o-matic :P
Thanks for the support everybody!

The offline version and the tabs can be downloaded at www.evil-dog.com

-Voices And More-
IceWolf
-Soundtrack-
My band Chucks Nation! Check us out on newgrounds http://chucksnation.newgr ounds.com/audio (remove the space from the URL)

Reviews


bufurdbufurd

Rated 5 / 5 stars

WOOHOO!!!

that rocks man
you should do a metal-o-matic too
but yeah
cool song
3-0-1---4-4-89--------61---5--------------0----------------
--------------------------6-3-3-2-4---6----------4---3-0-4--
-8-3-9-6-0--b--------------------------------------9-3-2-4-5
-6-8-7-6-8-6-91---4--------------0--------------------------
----------------



Ironreaper27Ironreaper27

Rated 4.5 / 5 stars

My songs.

Yea, here's my two songs. They're pretty awesome. Enjoy

Song 1:
9---9---880---5-71---1-------1---1---98989-----5-5-0---0---
0---0---0---0---1---7-9---1---1---0---0---b4---4---9---4---4
---c-c-c-9---9---4---1---4---4---2-6-1---4---b-c---a---a----
1---2-4-6-8-7-6-3-3-1---1--2a-a-a-3-3-3-3-0---2-4-1---2-5-6-
9-1---7-6-8-a---

Song 2:
88881---1---3---583---4-6-2-----550---3---77-9-92---2---0--
-1---2---88879------------c---1---1---3-1---3-2---3-1---4---
2---1---3-7-7-2---2---1---1---4---c--ab------------a---2-3-2
-5-3-1---7-6-7-8-0---6-3-3-2-3-5-4--a-a2-7-2-3-7-6-7-2-3-5-a
-9--------------

I have a 3rd song, but it sucks. So I'll spare you the pain.



Mr-YouMr-You

Rated 5 / 5 stars

woo!

wow thats great my songs might not be but they are

Song1:
9---2---2---1---0--2---1-1--9---1--2---9---0---1---9-------
---------------------------0--0---2---31--0--2---1-1---0--1-
-2---4---0---1---c---------------------------------------a--
-4-3-a-0--1---1-3333-a-1--222-a---0---1---a-----------------
----------------

Song2:
3a---0--0---0---7-7--------0---4----45-5---9-



FrekydelicFrekydelic

Rated 5 / 5 stars

GREAT!

Pretty Crappy, my song is. But look, its by me :P
9-----------5-------------0---9---------0-------------2----
-5-5--2---9----2----------c---1-------5-----4---4-------c---
-1---1----7-7-----7---0---2----2---3-3--8----5----ba-------0
---5-0-------0-------a-----0---1-------1---1---1--------2-2-
3-3--a------a---

I call it Frozen Strings. :)



animegirl411animegirl411

Rated 5 / 5 stars

check it out.

9-----------0-----0-------0-------2-----0-----0---0--------
-----0---0---------0---9--c-------0---0-----0---1---0---0---
0-----4-----0---0---1-----4---0-----0---9---0---c--a---1---1
---1---6---------1---6-2-----7-----9-0---0-------8-4-4-----8
-0-------0---a--


People find this review helpful!