Be a Supporter!

Punk-o-matic

Score:
rated 4.30 / 5 stars
Views:
7,899,836 Views
Share Links:
Genre:
Gadgets - Musical
Tags:
None

Credits & Info

Uploaded
Jan 26, 2004 | 3:22 AM EST
  • Frontpaged April 14, 2008
  • Weekly Users' Choice January 28, 2004
  • Daily Feature January 27, 2004

If you liked this, check these out!


Author Comments

**UPDATE**
Punkomatic 1 will be made into an iPhone/Android app once we reach 1250 likes on our Punkomatic facebook!
(remove spaces)
http://www.facebook.com/P unkoMatic

**EDIT**
PLEASE DON'T SUBMIT POM SONGS ON THE AUDIO PORTAL AS THEY ARE NOT VALID ORIGINAL COMPOSITIONS. THANK YOU FOR YOUR COMPREHENSION AND HAVE FUN WITH THE GAME! :D

The one and only Punk-o-matic :P
Thanks for the support everybody!

The offline version and the tabs can be downloaded at www.evil-dog.com

-Voices And More-
IceWolf
-Soundtrack-
My band Chucks Nation! Check us out on newgrounds http://chucksnation.newgr ounds.com/audio (remove the space from the URL)

Reviews


PluckUPluckU

Rated 5 / 5 stars

Neat

Here is the best peice plz try!!!

0---1---0---1---5-6-80---1----9---4-0 ---1---0---1---8883----88883---------
-----------c---9---9---9---6-9---9---
9---c---5-5-5-9---9---9---3-3-c---c--
-c---c------------------3-6-7-6-7-8-a ---3-6-7-6-7-----8-8-8-3-6-7-6-7-6-7-
a-----3-3---5-6-6----------------



Vengeance12Vengeance12

Rated 5 / 5 stars

Awesome!

Here are my two kind-of-good creations!
Double Infinity-By Vengeance12
----6-0---0---1---1---1---1--9---4-89 -1---1---1---1--1---9---1--0----9----
-----------5-5-5-3-3-5-3-5-5-3-3-5-5-
3-3-5-5-3-c-5-5-3-3-5-5-3-3-0--c--5-5 -3-3--b---------------------7-7-6-7-8 8-6-7-7-3-4-6-7-7-88-a-6-7-7-88-3-4-6 -7-7-a--6-7-7-88-----------------

Boom! You're dead! - By Vengeance12

6-0---0---1---1---3---3---6-----1---1 ---1---9--1---0-----6-0---1---0---9--
-------------4---4---4---4---8---8---
--4---4---4---4---b--8---8-------4---
4---4---c---b---------9--------------
---0---3-4-9-----------------a--2-3-4 -7-7-9-------------a-------------



saltywaterbassplayersaltywaterbassplayer

Rated 5 / 5 stars

wish you could do this on guitar hero

yea this game kicks ass, here is my creation.
9-1---0---9-6-1---4-1-------9-96-0---
---0---1---1---4-------2---2---2---5-
--9--------c-1---2---2---1---1---6-7-
7-7-7-4-------1---0-8---8---------8--
-4---4---5-6-c--------a-3-4-1---2-4-6 -6-0-------------1---8-8-0---4-1---1-
--6-6-9-0---3-3-3-3-3---a--------



akronisakronis

Rated 5 / 5 stars

love it

check out my songs

1:the unsung by akronis
----0---0---0---4-4-2---0---2---2---3 ---0---3---2---0---2---0---2---0---1-
2-6-6-2---99---9---1---1-----5-5---7-
7-1---7-7-1---4---1---7-8-3-7-8-3-9--
-8-----7-7-6-1---1---b--------1-1-6-6 -1---0---0---1---0---1---8-5-8-5-1-1-
6-6-3-8-2-8-3-2-7-0---1-2-2-5-a--

2: disturbing the fallen by akronis
4-85-6-4-703---82-5-2---1-0---3---5-8 792---70---80-73---2---1---885-9--82-
--0---9----6-4---5-0-5-4---0---b4--0-
--3-7---5-0---a1---9---2---9---b3-1--
-1---0---0---2---c----4-a---3-4-6-3-1 --8-04-4-3-4-4-3-4-4-3-4-a---0---2-7-
0--6-4-a---2-7-6-94-7-8-3-8-a----

i had a blast makin them



death429death429

Rated 5 / 5 stars

AWESOME GAME!

889--0--0--0--0--89-----2----2-8-9989 -------------------------------------
----------------0---0---2----c-------
bb0--b-cc-c--------------------------
------------------------7-8-6-6-2-3-8 -6-a---7-6-8--9-7-aa-a---------------
---------------------------------

Great game. Check out my song. It may be short but i like it. Im not a punk fan either!