Be a Supporter!

Credits & Info

Uploaded
Jan 26, 2004 | 3:22 AM EST
  • Weekly Users' Choice January 28, 2004
  • Daily Feature January 27, 2004

If you liked this, check these out!


Author Comments

**UPDATE**
Punkomatic 1 will be made into an iPhone/Android app once we reach 1250 likes on our Punkomatic facebook!
(remove spaces)
http://www.facebook.com/P unkoMatic

**EDIT**
PLEASE DON'T SUBMIT POM SONGS ON THE AUDIO PORTAL AS THEY ARE NOT VALID ORIGINAL COMPOSITIONS. THANK YOU FOR YOUR COMPREHENSION AND HAVE FUN WITH THE GAME! :D

The one and only Punk-o-matic :P
Thanks for the support everybody!

The offline version and the tabs can be downloaded at www.evil-dog.com

-Voices And More-
IceWolf
-Soundtrack-
My band Chucks Nation! Check us out on newgrounds http://chucksnation.newgr ounds.com/audio (remove the space from the URL)

Reviews


utwsutws

Rated 5 / 5 stars

Kick Ass!!

---0---------2----2---2--6-7-3---43--
2---3----3-3--2-------0-----2-----2--
3-1---19---bbbb--4---555--2--0---4--3 -5-2--5-2--0-5--3---7-1--2--555-4-3-8 ----02--1--230---0555----7-7-------3-
2--3-0---5-42-3--2-202--3-4--3-3-3--2 -----0-----3--2-2--2-43-1---1333-

try this


People find this review helpful!

acein12acein12

Rated 5 / 5 stars

Nice

Great.......

Heres my code: 9---0---0---9-9---0---84----8--77-6-6 -7-7-9-0---1---2---2---7-7-0---1---1-
--88889-889c---1---9---1---c-1---7-4-
--4---5-5-5-7-7-c-1---2---3---3-3-7-7 -1---2---2---8---9-7-ca---0---0---0--
-a-0---6-3--3--4-4-4-4-7-7-a-0---1---
2---2-2-7-7-0-------0---8-8-9-7-a



MetallicHippyMetallicHippy

Rated 4.5 / 5 stars

Shweet

It Rulz. Plain and simple. Check out mine:

0---88889-----0---888899-------------
-------------------6---6---6-1-1--a--
-1---1---1-0---bbbbc-----0---cccccc--
------------------------------9-a-9-a -8--6---6---9---9---8-0---aaaaa---8-0 ---aaaaa8-a--------------------------
----



drtkdrtk

Rated 5 / 5 stars

nice (Y)

love this thing..it's very awsome
ouh..and my song..it's simple but i like it..
----0---1---1---1---1---9------9-1--1 ---1---9---------0-1---2-9-----------
---------------0---1---2---4---4---8-
--8---a---9---9---c-----------4---6-c ----------------------0---0---1---1--
-1---2-3-4-5-4-6-7-7-4-6-1---9-8-7-5-
6-4-4-6-7-8----------------------



catboy161catboy161

Rated 4.5 / 5 stars

dooooooood

nice dude with cool sounds
my song btw:
4-4-3---3---6-4-1---81---3---2---4-5-
-----775-----------------------------
---------------ac------c-4---4---6-4-
--1---3-44---2---6-6-----------------
-------------------------------8-89-4 -3-2-a-7-4-3-2-3-5-0---3---6-3-------
---------------------------------