Be a Supporter!

Credits & Info

Date
02/16/2011
File Info
Loop
646.4 KB
17 sec
Score
4.34 / 5.00

Related Content

Heard in 3 Entries!


View all submissions featuring this audio file.

Licensing Terms

Attribution:
You must give credit to the artist.
Noncommercial:
You may not use this work for commercial purposes unless you make specific arrangements with the artist.
Share Alike:
If you alter, transform, or build upon this image, you may distribute the resulting creation only under a license identical to this one.
Score:
Rated 4.34 / 5 stars
Plays & Downloads:
4,056 Plays | 393 Downloads
Share Links:
Genres:
Metal, Rock - Indie
Tags:
None

Author Comments

From my animation Blogsies.

Reviews


MateoNCMateoNC

Rated 5 / 5 stars January 24, 2013

I have to admit, it's an amazing loop, nice work!



PankakeryBakeryPankakeryBakery

Rated 5 / 5 stars April 1, 2012

Amazing guitar loop. Keep up the good work.



anton8745anton8745

Rated 5 / 5 stars February 25, 2012

I could listen to this song for hours on end. keep up the great work Yotom!



PurpleMonkeyFartPurpleMonkeyFart

Rated 5 / 5 stars November 11, 2011

OMFGosh

dude i NEED tabs for this!



CracketyJonesCracketyJones

Rated 5 / 5 stars September 12, 2011

This is my first online guitar tab. Hope its right

E----------------------------7-------
----------------------------------7
B---5---------45----------5----------
----------4--4-5-------------5
G------------------------------------
----------5--6-------------------
D------------------------------------
-----------------------------------
A------------------------------------
----------------------------------
E------------------------------------
-----------------------------------

E------------------------------------
-----------------
B------------------------------------
----------------
G------------------------------------
-----------------
D----------------------------------4-
5-6----------56
A---4-6-----6-4----------4-----------
--------------
E----------------------------7---7---
----------------

Also, the chords are: C#5, B5, A5, B5

I love this song Yotam.


People find this review helpful!