Be a Supporter!

Credits & Info

Uploaded
Jun 27, 2004 | 2:14 AM EDT
File Info
Song
3.2 MB
3 min 1 sec
Score
2.59 / 5.00

Licensing Terms

Please contact me if you would like to use this in a project. We can discuss the details.

Score:
Rated 2.59 / 5 stars
Plays & Downloads:
697 Plays | 382 Downloads
Share Links:
Genres:
Metal, Rock - General Rock
Tags:
None

Author Comments

Track 03 off of the new Exlidus EP. Exlidus is from Half Moon Bay, California

Reviews


QwertyuiopasdQwertyuiopasd

Rated 5 / 5 stars

great.

loved it. the vocals should probably be a bit louder so that they are easier to hear. one more thing, where is the rest of the sons on this CD, and Shrine and Vapored Reflection both say they are track 02. I'd love to hear the rest of the CD or whatever it is.



NyteMyreNyteMyre

Rated 4 / 5 stars

Nice one

Well i downloaded and i think its a good song. When i heard it the first time, i needed to know how to play the intro... well i figured it out (i think)

if newgrounds doesnt mess with this..

e|-17----17---- 17-----17-18-15----15----18----17----15----15----15----15-1
7--13----13----11----13---|
B|----15----15-----15-----------15----15----15----15----13-
---13----13-----------11----11----11----11|
G|---------------------------------------------------------
------------------------------------------| 3x
D|---------------------------------------------------------
------------------------------------------|
A|---------------------------------------------------------
------------------------------------------|
E|---------------------------------------------------------
------------------------------------------|

e|---------------------------------------------------------
-----------------------------|
B|---------------------------------------------------------
-----------------------------|
G|-9-9-9-9--7-7--10-9-7-7-7-7-7--5-5-3-5-------------------
-----------------------------| ...x
D|--7-7-7----7-7---7-7-5-5-5-5----3-3-3-3------------------
-----------------------------|
A|---------------------------------------------------------
-----------------------------|
E|---------------------------------------------------------
-----------------------------|

Don't know the rest



crash-chapacrash-chapa

Rated 2 / 5 stars

work on the vocals.

I've listened to everything you've uploaded so far, and i'm imprested with your music. But your vocals aren't strong enough to carry your music. think about going instro. only if you can't find a singer.



americanidotamericanidot

Rated 5 / 5 stars

this rocks

the best one yet



gltovargltovar

Rated 4.5 / 5 stars

Sweet

This is awesome, very different = ]